  0
SECTION
  2
HEADER
  9
$ACADVER
  1
AC1015
  9
$ACADMAINTVER
 70
     6
  9
$DWGCODEPAGE
  3
ANSI_1254
  9
$INSBASE
 10
0.0
 20
0.0
 30
0.0
  9
$EXTMIN
 10
0.0
 20
0.0
 30
0.0
  9
$EXTMAX
 10
279.4
 20
215.9
 30
0.0
  9
$LIMMIN
 10
0.0
 20
0.0
  9
$LIMMAX
 10
279.4
 20
215.9
  9
$ORTHOMODE
 70
     0
  9
$REGENMODE
 70
     1
  9
$FILLMODE
 70
     1
  9
$QTEXTMODE
 70
     0
  9
$MIRRTEXT
 70
     1
  9
$LTSCALE
 40
1.0
  9
$ATTMODE
 70
     1
  9
$TEXTSIZE
 40
3.5
  9
$TRACEWID
 40
1.0
  9
$TEXTSTYLE
  7
Standard
  9
$CLAYER
  8
0
  9
$CELTYPE
  6
ByLayer
  9
$CECOLOR
 62
   256
  9
$CELTSCALE
 40
1.0
  9
$DISPSILH
 70
     0
  9
$DIMSCALE
 40
1.0
  9
$DIMASZ
 40
3.5
  9
$DIMEXO
 40
1.0
  9
$DIMDLI
 40
3.75
  9
$DIMRND
 40
0.0
  9
$DIMDLE
 40
0.0
  9
$DIMEXE
 40
1.0
  9
$DIMTP
 40
0.0
  9
$DIMTM
 40
0.0
  9
$DIMTXT
 40
3.5
  9
$DIMCEN
 40
2.5
  9
$DIMTSZ
 40
0.0
  9
$DIMTOL
 70
     0
  9
$DIMLIM
 70
     0
  9
$DIMTIH
 70
     1
  9
$DIMTOH
 70
     1
  9
$DIMSE1
 70
     0
  9
$DIMSE2
 70
     0
  9
$DIMTAD
 70
     1
  9
$DIMZIN
 70
     0
  9
$DIMBLK
  1

  9
$DIMASO
 70
     1
  9
$DIMSHO
 70
     1
  9
$DIMPOST
  1

  9
$DIMAPOST
  1

  9
$DIMALT
 70
     0
  9
$DIMALTD
 70
     3
  9
$DIMALTF
 40
0.0393700787
  9
$DIMLFAC
 40
1.0
  9
$DIMTOFL
 70
     1
  9
$DIMTVP
 40
0.0
  9
$DIMTIX
 70
     0
  9
$DIMSOXD
 70
     0
  9
$DIMSAH
 70
     0
  9
$DIMBLK1
  1

  9
$DIMBLK2
  1

  9
$DIMSTYLE
  2
ISO-25
  9
$DIMCLRD
 70
     0
  9
$DIMCLRE
 70
     0
  9
$DIMCLRT
 70
     0
  9
$DIMTFAC
 40
1.0
  9
$DIMGAP
 40
1.524
  9
$DIMJUST
 70
     0
  9
$DIMSD1
 70
     0
  9
$DIMSD2
 70
     0
  9
$DIMTOLJ
 70
     0
  9
$DIMTZIN
 70
     0
  9
$DIMALTZ
 70
     0
  9
$DIMALTTZ
 70
     0
  9
$DIMUPT
 70
     0
  9
$DIMDEC
 70
     2
  9
$DIMTDEC
 70
     2
  9
$DIMALTU
 70
     2
  9
$DIMALTTD
 70
     3
  9
$DIMTXSTY
  7
Standard
  9
$DIMAUNIT
 70
     0
  9
$DIMADEC
 70
     2
  9
$DIMALTRND
 40
0.0
  9
$DIMAZIN
 70
     0
  9
$DIMDSEP
 70
    44
  9
$DIMATFIT
 70
     3
  9
$DIMFRAC
 70
     0
  9
$DIMLDRBLK
  1

  9
$DIMLUNIT
 70
     2
  9
$DIMLWD
 70
    -2
  9
$DIMLWE
 70
    -2
  9
$DIMTMOVE
 70
     0
  9
$LUNITS
 70
     2
  9
$LUPREC
 70
     2
  9
$SKETCHINC
 40
1.0
  9
$FILLETRAD
 40
10.0
  9
$AUNITS
 70
     0
  9
$AUPREC
 70
     2
  9
$MENU
  1
.
  9
$ELEVATION
 40
0.0
  9
$PELEVATION
 40
0.0
  9
$THICKNESS
 40
0.0
  9
$LIMCHECK
 70
     0
  9
$CHAMFERA
 40
0.0
  9
$CHAMFERB
 40
0.0
  9
$CHAMFERC
 40
0.0
  9
$CHAMFERD
 40
0.0
  9
$SKPOLY
 70
     0
  9
$TDCREATE
 40
2458985.721465671
  9
$TDUCREATE
 40
2458985.596465671
  9
$TDUPDATE
 40
2458985.721465926
  9
$TDUUPDATE
 40
2458985.596465926
  9
$TDINDWG
 40
0.0000000116
  9
$TDUSRTIMER
 40
0.0000000116
  9
$USRTIMER
 70
     1
  9
$ANGBASE
 50
0.0
  9
$ANGDIR
 70
     0
  9
$PDMODE
 70
     0
  9
$PDSIZE
 40
-1.0
  9
$PLINEWID
 40
0.0
  9
$SPLFRAME
 70
     0
  9
$SPLINETYPE
 70
     6
  9
$SPLINESEGS
 70
     8
  9
$HANDSEED
  5
E1
  9
$SURFTAB1
 70
     6
  9
$SURFTAB2
 70
     6
  9
$SURFTYPE
 70
     6
  9
$SURFU
 70
     6
  9
$SURFV
 70
     6
  9
$UCSBASE
  2

  9
$UCSNAME
  2

  9
$UCSORG
 10
0.0
 20
0.0
 30
0.0
  9
$UCSXDIR
 10
1.0
 20
0.0
 30
0.0
  9
$UCSYDIR
 10
0.0
 20
1.0
 30
0.0
  9
$UCSORTHOREF
  2

  9
$UCSORTHOVIEW
 70
     0
  9
$UCSORGTOP
 10
0.0
 20
0.0
 30
0.0
  9
$UCSORGBOTTOM
 10
0.0
 20
0.0
 30
0.0
  9
$UCSORGLEFT
 10
0.0
 20
0.0
 30
0.0
  9
$UCSORGRIGHT
 10
0.0
 20
0.0
 30
0.0
  9
$UCSORGFRONT
 10
0.0
 20
0.0
 30
0.0
  9
$UCSORGBACK
 10
0.0
 20
0.0
 30
0.0
  9
$PUCSBASE
  2

  9
$PUCSNAME
  2

  9
$PUCSORG
 10
0.0
 20
0.0
 30
0.0
  9
$PUCSXDIR
 10
1.0
 20
0.0
 30
0.0
  9
$PUCSYDIR
 10
0.0
 20
1.0
 30
0.0
  9
$PUCSORTHOREF
  2

  9
$PUCSORTHOVIEW
 70
     0
  9
$PUCSORGTOP
 10
0.0
 20
0.0
 30
0.0
  9
$PUCSORGBOTTOM
 10
0.0
 20
0.0
 30
0.0
  9
$PUCSORGLEFT
 10
0.0
 20
0.0
 30
0.0
  9
$PUCSORGRIGHT
 10
0.0
 20
0.0
 30
0.0
  9
$PUCSORGFRONT
 10
0.0
 20
0.0
 30
0.0
  9
$PUCSORGBACK
 10
0.0
 20
0.0
 30
0.0
  9
$USERI1
 70
     0
  9
$USERI2
 70
     0
  9
$USERI3
 70
     0
  9
$USERI4
 70
     0
  9
$USERI5
 70
     0
  9
$USERR1
 40
0.0
  9
$USERR2
 40
0.0
  9
$USERR3
 40
0.0
  9
$USERR4
 40
0.0
  9
$USERR5
 40
0.0
  9
$WORLDVIEW
 70
     1
  9
$SHADEDGE
 70
     3
  9
$SHADEDIF
 70
    70
  9
$TILEMODE
 70
     1
  9
$MAXACTVP
 70
    64
  9
$PINSBASE
 10
0.0
 20
0.0
 30
0.0
  9
$PLIMCHECK
 70
     0
  9
$PEXTMIN
 10
1.0000000000E+20
 20
1.0000000000E+20
 30
1.0000000000E+20
  9
$PEXTMAX
 10
-1.0000000000E+20
 20
-1.0000000000E+20
 30
-1.0000000000E+20
  9
$PLIMMIN
 10
0.0
 20
0.0
  9
$PLIMMAX
 10
420.0
 20
297.0
  9
$UNITMODE
 70
     0
  9
$VISRETAIN
 70
     1
  9
$PLINEGEN
 70
     0
  9
$PSLTSCALE
 70
     1
  9
$TREEDEPTH
 70
  3020
  9
$CMLSTYLE
  2
Standard
  9
$CMLJUST
 70
     0
  9
$CMLSCALE
 40
20.0
  9
$PROXYGRAPHICS
 70
     1
  9
$MEASUREMENT
 70
     1
  9
$CELWEIGHT
370
    -1
  9
$ENDCAPS
280
     0
  9
$JOINSTYLE
280
     0
  9
$LWDISPLAY
290
     1
  9
$INSUNITS
 70
     4
  9
$HYPERLINKBASE
  1

  9
$STYLESHEET
  1

  9
$XEDIT
290
     1
  9
$CEPSNTYPE
380
     0
  9
$PSTYLEMODE
290
     1
  9
$FINGERPRINTGUID
  2
{6b5ae192-86fe-41fc-805d-5ff6ae5990c0}
  9
$VERSIONGUID
  2
{FAEB1C32-E019-11D5-929B-00C0DF256EC4}
  9
$EXTNAMES
290
     1
  9
$PSVPSCALE
 40
0.0
  9
$OLESTARTUP
290
     0
  0
ENDSEC
  0
SECTION
  2
CLASSES
  0
CLASS
  1
ACDBDICTIONARYWDFLT
  2
AcDbDictionaryWithDefault
  3
ObjectDBX Classes
 90
        0
280
     0
281
     0
  0
CLASS
  1
VISUALSTYLE
  2
AcDbVisualStyle
  3
ObjectDBX Classes
 90
     4095
280
     0
281
     0
  0
CLASS
  1
MATERIAL
  2
AcDbMaterial
  3
ObjectDBX Classes
 90
     1153
280
     0
281
     0
  0
CLASS
  1
SCALE
  2
AcDbScale
  3
ObjectDBX Classes
 90
     1153
280
     0
281
     0
  0
CLASS
  1
TABLESTYLE
  2
AcDbTableStyle
  3
ObjectDBX Classes
 90
     4095
280
     0
281
     0
  0
CLASS
  1
MLEADERSTYLE
  2
AcDbMLeaderStyle
  3
ACDB_MLEADERSTYLE_CLASS
 90
     4095
280
     0
281
     0
  0
CLASS
  1
SUN
  2
AcDbSun
  3
SCENEOE
 90
     1153
280
     0
281
     0
  0
CLASS
  1
ACDBPLACEHOLDER
  2
AcDbPlaceHolder
  3
ObjectDBX Classes
 90
        0
280
     0
281
     0
  0
CLASS
  1
LAYOUT
  2
AcDbLayout
  3
ObjectDBX Classes
 90
        0
280
     0
281
     0
  0
ENDSEC
  0
SECTION
  2
TABLES
  0
TABLE
  2
VPORT
  5
8
330
0
100
AcDbSymbolTable
 70
     1
  0
VPORT
  5
29
330
8
100
AcDbSymbolTableRecord
100
AcDbViewportTableRecord
  2
*Active
 70
     0
 10
0.0
 20
0.0
 11
1.0
 21
1.0
 12
139.7
 22
107.95
 13
0.0
 23
0.0
 14
10.0
 24
10.0
 15
10.0
 25
10.0
 16
0.0
 26
0.0
 36
1.0
 17
0.0
 27
0.0
 37
0.0
 40
215.9
 41
1.2941176471
 42
50.0
 43
0.0
 44
0.0
 50
0.0
 51
0.0
 71
     0
 72
  2000
 73
     1
 74
     3
 75
     0
 76
     0
 77
     0
 78
     0
281
     0
 65
     1
110
0.0
120
0.0
130
0.0
111
1.0
121
0.0
131
0.0
112
0.0
122
1.0
132
0.0
 79
     0
146
0.0
  0
ENDTAB
  0
TABLE
  2
LTYPE
  5
5
330
0
100
AcDbSymbolTable
 70
     6
  0
LTYPE
  5
14
330
5
100
AcDbSymbolTableRecord
100
AcDbLinetypeTableRecord
  2
ByBlock
 70
     0
  3

 72
    65
 73
     0
 40
0.0
  0
LTYPE
  5
15
330
5
100
AcDbSymbolTableRecord
100
AcDbLinetypeTableRecord
  2
ByLayer
 70
     0
  3

 72
    65
 73
     0
 40
0.0
  0
LTYPE
  5
16
330
5
100
AcDbSymbolTableRecord
100
AcDbLinetypeTableRecord
  2
Continuous
 70
     0
  3
Solid line
 72
    65
 73
     0
 40
0.0
  0
LTYPE
  5
6E
330
5
100
AcDbSymbolTableRecord
100
AcDbLinetypeTableRecord
  2
HIDDEN
 70
     0
  3
Hidden __ __ __ __ __ __ __ __ __ __ __ __ __ __
 72
    65
 73
     2
 40
1.905
 49
1.27
 74
     0
 49
-0.635
 74
     0
  0
LTYPE
  5
6F
330
5
100
AcDbSymbolTableRecord
100
AcDbLinetypeTableRecord
  2
PHANTOM
 70
     0
  3
Phantom ______  __  __  ______  __  __  ______
 72
    65
 73
     6
 40
12.7
 49
6.35
 74
     0
 49
-1.27
 74
     0
 49
1.27
 74
     0
 49
-1.27
 74
     0
 49
1.27
 74
     0
 49
-1.27
 74
     0
  0
LTYPE
  5
70
330
5
100
AcDbSymbolTableRecord
100
AcDbLinetypeTableRecord
  2
CENTER
 70
     0
  3
Center ____ _ ____ _ ____ _ ____ _ ____ _ ____
 72
    65
 73
     4
 40
10.16
 49
6.35
 74
     0
 49
-1.27
 74
     0
 49
1.27
 74
     0
 49
-1.27
 74
     0
  0
LTYPE
  5
71
330
5
100
AcDbSymbolTableRecord
100
AcDbLinetypeTableRecord
  2
CENTERX2
 70
     0
  3
Center (2x) ________  __  ________  __  _____
 72
    65
 73
     4
 40
20.32
 49
12.7
 74
     0
 49
-2.54
 74
     0
 49
2.54
 74
     0
 49
-2.54
 74
     0
  0
LTYPE
  5
72
330
5
100
AcDbSymbolTableRecord
100
AcDbLinetypeTableRecord
  2
DOT2
 70
     0
  3
Dot (.5x) ........................................
 72
    65
 73
     2
 40
0.635
 49
0.0
 74
     0
 49
-0.635
 74
     0
  0
ENDTAB
  0
TABLE
  2
LAYER
  5
2
330
0
100
AcDbSymbolTable
 70
    17
  0
LAYER
  5
10
330
2
100
AcDbSymbolTableRecord
100
AcDbLayerTableRecord
  2
0
 70
     0
 62
     7
  6
Continuous
370
    -3
390
F
  0
LAYER
  5
73
330
2
100
AcDbSymbolTableRecord
100
AcDbLayerTableRecord
  2
FORMAT
 70
     0
 62
     7
  6
Continuous
370
    -3
390
F
  0
LAYER
  5
74
330
2
100
AcDbSymbolTableRecord
100
AcDbLayerTableRecord
  2
YARDIMCI_GEOMETRI
 70
     0
 62
    -6
  6
Continuous
290
     0
370
    -3
390
F
  0
LAYER
  5
75
330
2
100
AcDbSymbolTableRecord
100
AcDbLayerTableRecord
  2
SAYFA_CERCEVESI
 70
     0
 62
     7
  6
Continuous
370
    25
390
F
  0
LAYER
  5
76
330
2
100
AcDbSymbolTableRecord
100
AcDbLayerTableRecord
  2
ANTET
 70
     0
 62
     7
  6
Continuous
370
    -3
390
F
  0
LAYER
  5
77
330
2
100
AcDbSymbolTableRecord
100
AcDbLayerTableRecord
  2
OLCU
 70
     0
 62
   150
  6
Continuous
370
    -3
390
F
  0
LAYER
  5
78
330
2
100
AcDbSymbolTableRecord
100
AcDbLayerTableRecord
  2
METIN
 70
     0
 62
    96
  6
Continuous
370
    -3
390
F
  0
LAYER
  5
79
330
2
100
AcDbSymbolTableRecord
100
AcDbLayerTableRecord
  2
BALON
 70
     0
 62
     5
  6
Continuous
370
    -3
390
F
  0
LAYER
  5
7A
330
2
100
AcDbSymbolTableRecord
100
AcDbLayerTableRecord
  2
VURGU
 70
     0
 62
     7
  6
Continuous
370
    -3
390
F
  0
LAYER
  5
7B
330
2
100
AcDbSymbolTableRecord
100
AcDbLayerTableRecord
  2
SILIK
 70
     0
 62
     7
  6
Continuous
370
    -3
390
F
  0
LAYER
  5
7C
330
2
100
AcDbSymbolTableRecord
100
AcDbLayerTableRecord
  2
MODEL
 70
     0
 62
     7
  6
Continuous
370
    -3
390
F
  0
LAYER
  5
7D
330
2
100
AcDbSymbolTableRecord
100
AcDbLayerTableRecord
  2
DETAYLANDıRMA
 70
     0
 62
   190
  6
Continuous
370
    -3
390
F
  0
LAYER
  5
7E
330
2
100
AcDbSymbolTableRecord
100
AcDbLayerTableRecord
  2
TOLERANS
 70
     0
 62
   230
  6
Continuous
370
    -3
390
F
  0
LAYER
  5
7F
330
2
100
AcDbSymbolTableRecord
100
AcDbLayerTableRecord
  2
MERKEZ_CIZGILERI
 70
     0
 62
    30
  6
Continuous
370
    -3
390
F
  0
LAYER
  5
80
330
2
100
AcDbSymbolTableRecord
100
AcDbLayerTableRecord
  2
KESIT-DETAY_CIZGILERI
 70
     0
 62
     7
  6
Continuous
370
    -3
390
F
  0
LAYER
  5
81
330
2
100
AcDbSymbolTableRecord
100
AcDbLayerTableRecord
  2
\U+041E\U+0421\U+0415\U+0412\U+042B\U+0415
 70
     0
 62
     7
  6
Continuous
370
    -3
390
F
  0
LAYER
  5
82
330
2
100
AcDbSymbolTableRecord
100
AcDbLayerTableRecord
  2
\U+0412\U+041E\U+0414\U+042F\U+041D\U+042B\U+0415_\U+0417\U+041D\U+0410\U+041A\U+0418
 70
     0
 62
    11
  6
Continuous
370
    -3
390
F
  0
ENDTAB
  0
TABLE
  2
STYLE
  5
3
330
0
100
AcDbSymbolTable
 70
     1
  0
STYLE
  5
11
330
3
100
AcDbSymbolTableRecord
100
AcDbTextStyleTableRecord
  2
Standard
 70
     0
 40
0.0
 41
1.0
 50
0.0
 71
     0
 42
3.5
  3
txt
  4

  0
ENDTAB
  0
TABLE
  2
VIEW
  5
6
330
0
100
AcDbSymbolTable
 70
     0
  0
ENDTAB
  0
TABLE
  2
UCS
  5
7
330
0
100
AcDbSymbolTable
 70
     0
  0
ENDTAB
  0
TABLE
  2
APPID
  5
9
330
0
100
AcDbSymbolTable
 70
     1
  0
APPID
  5
12
330
9
100
AcDbSymbolTableRecord
100
AcDbRegAppTableRecord
  2
ACAD
 70
     0
  0
ENDTAB
  0
TABLE
  2
DIMSTYLE
  5
A
330
0
100
AcDbSymbolTable
 70
     1
100
AcDbDimStyleTable
  0
DIMSTYLE
105
27
330
A
100
AcDbSymbolTableRecord
100
AcDbDimStyleTableRecord
  2
ISO-25
 70
     0
 41
2.5
 42
0.625
 43
3.75
 44
1.25
 73
     0
 74
     0
 77
     1
 78
     8
140
2.5
141
2.5
143
0.0393700787
147
0.625
171
     3
172
     1
178
     0
271
     2
272
     2
274
     3
278
    44
283
     0
284
     8
340
11
  0
ENDTAB
  0
TABLE
  2
BLOCK_RECORD
  5
1
330
0
100
AcDbSymbolTable
 70
     3
  0
BLOCK_RECORD
  5
1F
330
1
100
AcDbSymbolTableRecord
100
AcDbBlockTableRecord
  2
*Model_Space
340
22
  0
BLOCK_RECORD
  5
1B
330
1
100
AcDbSymbolTableRecord
100
AcDbBlockTableRecord
  2
*Paper_Space
340
1E
  0
BLOCK_RECORD
  5
23
330
1
100
AcDbSymbolTableRecord
100
AcDbBlockTableRecord
  2
*Paper_Space0
340
26
  0
BLOCK_RECORD
  5
A7
330
1
100
AcDbSymbolTableRecord
100
AcDbBlockTableRecord
  2
SW_CENTERMARKSYMBOL_0
340
0
102
{BLKREFS
331
B2
102
}
  0
BLOCK_RECORD
  5
C7
330
1
100
AcDbSymbolTableRecord
100
AcDbBlockTableRecord
  2
SW_CENTERMARKSYMBOL_1
340
0
102
{BLKREFS
331
D2
102
}
  0
ENDTAB
  0
ENDSEC
  0
SECTION
  2
BLOCKS
  0
BLOCK
  5
20
330
1F
100
AcDbEntity
  8
0
100
AcDbBlockBegin
  2
*Model_Space
 70
     0
 10
0.0
 20
0.0
 30
0.0
  3
*Model_Space
  1

  0
ENDBLK
  5
21
330
1F
100
AcDbEntity
  8
0
100
AcDbBlockEnd
  0
BLOCK
  5
1C
330
1B
100
AcDbEntity
 67
     1
  8
0
100
AcDbBlockBegin
  2
*Paper_Space
 70
     0
 10
0.0
 20
0.0
 30
0.0
  3
*Paper_Space
  1

  0
ENDBLK
  5
1D
330
1B
100
AcDbEntity
 67
     1
  8
0
100
AcDbBlockEnd
  0
BLOCK
  5
24
330
23
100
AcDbEntity
  8
0
100
AcDbBlockBegin
  2
*Paper_Space0
 70
     0
 10
0.0
 20
0.0
 30
0.0
  3
*Paper_Space0
  1

  0
ENDBLK
  5
25
330
23
100
AcDbEntity
  8
0
100
AcDbBlockEnd
  0
BLOCK
  5
A8
330
A7
100
AcDbEntity
  8
0
100
AcDbBlockBegin
  2
SW_CENTERMARKSYMBOL_0
 70
     0
 10
0.0
 20
0.0
 30
0.0
  3
SW_CENTERMARKSYMBOL_0
  1

  0
LINE
  5
AA
330
A7
100
AcDbEntity
  8
FORMAT
 62
     0
100
AcDbLine
 10
0.0
 20
0.0
 30
0.0
 11
0.0
 21
2.5
 31
0.0
  0
LINE
  5
AB
330
A7
100
AcDbEntity
  8
FORMAT
 62
     0
100
AcDbLine
 10
0.0
 20
0.0
 30
0.0
 11
-2.5
 21
0.0
 31
0.0
  0
LINE
  5
AC
330
A7
100
AcDbEntity
  8
FORMAT
 62
     0
100
AcDbLine
 10
0.0
 20
0.0
 30
0.0
 11
0.0
 21
-2.5
 31
0.0
  0
LINE
  5
AD
330
A7
100
AcDbEntity
  8
FORMAT
 62
     0
100
AcDbLine
 10
0.0
 20
0.0
 30
0.0
 11
2.5
 21
0.0
 31
0.0
  0
LINE
  5
AE
330
A7
100
AcDbEntity
  8
FORMAT
 62
     0
100
AcDbLine
 10
0.0
 20
5.0
 30
0.0
 11
0.0
 21
102.5
 31
0.0
  0
LINE
  5
AF
330
A7
100
AcDbEntity
  8
FORMAT
 62
     0
100
AcDbLine
 10
-5.0
 20
0.0
 30
0.0
 11
-102.5
 21
0.0
 31
0.0
  0
LINE
  5
B0
330
A7
100
AcDbEntity
  8
FORMAT
 62
     0
100
AcDbLine
 10
0.0
 20
-5.0
 30
0.0
 11
0.0
 21
-102.5
 31
0.0
  0
LINE
  5
B1
330
A7
100
AcDbEntity
  8
FORMAT
 62
     0
100
AcDbLine
 10
5.0
 20
0.0
 30
0.0
 11
102.5
 21
0.0
 31
0.0
  0
ENDBLK
  5
A9
330
A7
100
AcDbEntity
  8
0
100
AcDbBlockEnd
  0
BLOCK
  5
C8
330
C7
100
AcDbEntity
  8
0
100
AcDbBlockBegin
  2
SW_CENTERMARKSYMBOL_1
 70
     0
 10
0.0
 20
0.0
 30
0.0
  3
SW_CENTERMARKSYMBOL_1
  1

  0
LINE
  5
CA
330
C7
100
AcDbEntity
  8
FORMAT
 62
     0
100
AcDbLine
 10
0.0
 20
0.0
 30
0.0
 11
0.0
 21
2.5
 31
0.0
  0
LINE
  5
CB
330
C7
100
AcDbEntity
  8
FORMAT
 62
     0
100
AcDbLine
 10
0.0
 20
0.0
 30
0.0
 11
-2.5
 21
0.0
 31
0.0
  0
LINE
  5
CC
330
C7
100
AcDbEntity
  8
FORMAT
 62
     0
100
AcDbLine
 10
0.0
 20
0.0
 30
0.0
 11
0.0
 21
-2.5
 31
0.0
  0
LINE
  5
CD
330
C7
100
AcDbEntity
  8
FORMAT
 62
     0
100
AcDbLine
 10
0.0
 20
0.0
 30
0.0
 11
2.5
 21
0.0
 31
0.0
  0
LINE
  5
CE
330
C7
100
AcDbEntity
  8
FORMAT
 62
     0
100
AcDbLine
 10
0.0
 20
5.0
 30
0.0
 11
0.0
 21
102.5
 31
0.0
  0
LINE
  5
CF
330
C7
100
AcDbEntity
  8
FORMAT
 62
     0
100
AcDbLine
 10
-5.0
 20
0.0
 30
0.0
 11
-102.5
 21
0.0
 31
0.0
  0
LINE
  5
D0
330
C7
100
AcDbEntity
  8
FORMAT
 62
     0
100
AcDbLine
 10
0.0
 20
-5.0
 30
0.0
 11
0.0
 21
-102.5
 31
0.0
  0
LINE
  5
D1
330
C7
100
AcDbEntity
  8
FORMAT
 62
     0
100
AcDbLine
 10
5.0
 20
0.0
 30
0.0
 11
102.5
 21
0.0
 31
0.0
  0
ENDBLK
  5
C9
330
C7
100
AcDbEntity
  8
0
100
AcDbBlockEnd
  0
ENDSEC
  0
SECTION
  2
ENTITIES
  0
LINE
  5
83
330
1F
100
AcDbEntity
  8
0
  6
Continuous
 62
     7
370
    25
100
AcDbLine
 10
2.6543364557
 20
85.0759565888
 30
0.0
 11
2.6543364557
 21
-52.5026798191
 31
0.0
  0
LINE
  5
84
330
1F
100
AcDbEntity
  8
0
  6
Continuous
 62
     7
370
    25
100
AcDbLine
 10
202.6543394359
 20
-52.5026798191
 30
0.0
 11
202.6543394359
 21
85.0759565888
 31
0.0
  0
ARC
  5
85
330
1F
100
AcDbEntity
  8
0
  6
Continuous
 62
     7
370
    25
100
AcDbCircle
 10
202.6543379458
 20
85.0759639436
 30
0.0
 40
200.0
100
AcDbArc
 50
135.0
 51
180.0
  0
LINE
  5
86
330
1F
100
AcDbEntity
  8
0
  6
Continuous
 62
     7
370
    25
100
AcDbLine
 10
163.943659577
 20
329.2079985199
 30
0.0
 11
61.2329804035
 21
226.4973342476
 31
0.0
  0
LINE
  5
87
330
1F
100
AcDbEntity
  8
0
  6
Continuous
 62
     7
370
    25
100
AcDbLine
 10
202.6543394359
 20
85.0759565888
 30
0.0
 11
305.3650111588
 21
187.7866357623
 31
0.0
  0
LINE
  5
88
330
1F
100
AcDbEntity
  8
0
  6
Continuous
 62
     7
370
    25
100
AcDbLine
 10
102.6543379458
 20
-52.5026798191
 30
0.0
 11
202.6543394359
 21
-52.5026798191
 31
0.0
  0
LINE
  5
89
330
1F
100
AcDbEntity
  8
0
  6
Continuous
 62
     7
370
    25
100
AcDbLine
 10
2.6543364557
 20
-52.5026798191
 30
0.0
 11
102.6543379458
 21
-52.5026798191
 31
0.0
  0
LWPOLYLINE
  5
8A
330
1F
100
AcDbEntity
  8
0
  6
Continuous
 62
     7
370
    25
100
AcDbPolyline
 90
       28
 70
   128
 43
0.0
 10
234.6543372305
 20
258.4973096905
 10
238.8432771595
 20
254.3083846627
 10
243.0175096425
 20
250.1341521798
 10
247.1623719366
 20
245.9892749844
 10
251.2632907065
 20
241.8883562146
 10
255.3058714302
 20
237.845790392
 10
259.2759133013
 20
233.8757336197
 10
263.1594688328
 20
229.9921929894
 10
266.9429034623
 20
226.2087583599
 10
270.6129253539
 20
222.5387513695
 10
274.156630102
 20
218.995016819
 10
277.5615901383
 20
215.5900716839
 10
280.8158398302
 20
212.3358368931
 10
283.9079350861
 20
209.2437267361
 10
286.8270278605
 20
206.3246190606
 10
289.5628661545
 20
203.5887956677
 10
292.1058387192
 20
201.045823103
 10
294.4470048579
 20
198.7046420632
 10
296.5781540306
 20
196.5735077916
 10
298.4917909535
 20
194.6598708687
 10
300.1811952027
 20
192.9704666195
 10
301.6404212149
 20
191.5112257061
 10
302.864372793
 20
190.2872890292
 10
303.8487286004
 20
189.3029332219
 10
304.5900464686
 20
188.5616153536
 10
305.0857037934
 20
188.0659580288
 10
305.3339571389
 20
187.8176897822
 10
305.3650111588
 20
187.7866357623
  0
LWPOLYLINE
  5
8B
330
1F
100
AcDbEntity
  8
0
  6
Continuous
 62
     7
370
    25
100
AcDbPolyline
 90
       28
 70
   128
 43
0.0
 10
163.943659577
 20
329.2079985199
 10
163.9747135969
 20
329.1769445
 10
164.2229781183
 20
328.9286911545
 10
164.7186354431
 20
328.4330189286
 10
165.4599458607
 20
327.6917159615
 10
166.444301668
 20
326.707345253
 10
167.6682457956
 20
325.4834234772
 10
169.127486709
 20
324.0241825638
 10
170.8168909582
 20
322.3347783146
 10
172.730527881
 20
320.4211413918
 10
174.8616696032
 20
318.2899773178
 10
177.2028431924
 20
315.9488260804
 10
179.7458083065
 20
313.4058535157
 10
182.4816466006
 20
310.6700003205
 10
185.400739375
 20
307.7509224472
 10
188.4928420814
 20
304.6588122902
 10
191.7470917734
 20
301.4045774994
 10
195.1520443591
 20
297.999602562
 10
198.6957565578
 20
294.4558978138
 10
202.3657784494
 20
290.7858908234
 10
206.1492056282
 20
287.002456194
 10
210.0327611597
 20
283.1188857613
 10
214.0028030308
 20
279.1488587914
 10
218.0453837546
 20
275.1062631665
 10
222.146309975
 20
271.0053443966
 10
226.2911648186
 20
266.8604970036
 10
230.4653973015
 20
262.6862645207
 10
234.6543372305
 20
258.4973096905
  0
LINE
  5
8C
330
1F
100
AcDbEntity
  8
0
  6
Continuous
 62
     1
370
    25
100
AcDbLine
 10
2.6543364557
 20
85.0759565888
 30
0.0
 11
202.6543394359
 21
85.0759565888
 31
0.0
  0
LWPOLYLINE
  5
8D
330
1F
100
AcDbEntity
  8
0
  6
Continuous
 62
     1
370
    25
100
AcDbPolyline
 90
       54
 70
   128
 43
0.0
 10
61.2329804035
 20
226.4973342476
 10
61.3571704062
 20
226.3731479702
 10
61.7292933794
 20
226.0010063706
 10
62.3480491968
 20
225.3822505532
 10
63.2112585636
 20
224.5190560875
 10
64.3158965441
 20
223.4144032059
 10
65.6580813857
 20
222.0722258149
 10
67.2330931457
 20
220.497202879
 10
69.0354034933
 20
218.6949074326
 10
71.0586831602
 20
216.6716277657
 10
73.2958205672
 20
214.4344866333
 10
75.7389628025
 20
211.9913518486
 10
78.3795267971
 20
209.3507766781
 10
81.2082347157
 20
206.5220594464
 10
84.2151549341
 20
203.5151541291
 10
87.3897215979
 20
200.340580946
 10
90.7207858445
 20
197.0095157681
 10
94.1966465371
 20
193.5336560069
 10
97.8050958993
 20
189.9252057133
 10
101.5334576996
 20
186.1968457756
 10
105.3686366113
 20
182.3616594134
 10
109.2971610533
 20
178.4331470786
 10
113.3052325504
 20
174.425062543
 10
117.3787722992
 20
170.3515321074
 10
121.5034705283
 20
166.2268310843
 10
125.6648414465
 20
162.0654583035
 10
129.8482679459
 20
157.8820318041
 10
134.0390518936
 20
153.6912441311
 10
138.2224783929
 20
149.5078176318
 10
142.3838474484
 20
145.3464597521
 10
146.5085484715
 20
141.221758729
 10
150.5820863577
 20
137.1482133923
 10
154.5901597174
 20
133.1401437579
 10
158.5186832281
 20
129.2116165219
 10
162.3538621398
 20
125.3764450608
 10
166.0822258027
 20
121.6480851231
 10
169.6906760963
 20
118.0396348296
 10
173.1665358575
 20
114.5637750683
 10
176.4976010354
 20
111.2327098904
 10
179.6721667679
 20
108.0581367073
 10
182.6790869864
 20
105.0512164889
 10
185.5077967676
 20
102.2225141583
 10
188.1483570369
 20
99.5819389878
 10
190.5914992722
 20
97.1388042031
 10
192.8286404046
 20
94.9016630707
 10
194.8519126209
 20
92.8783834038
 10
196.654230419
 20
91.0760730563
 10
198.2292384537
 20
89.5010650216
 10
199.5714232953
 20
88.1588727293
 10
200.6760612758
 20
87.05424965
 10
201.5392706426
 20
86.1910253821
 10
202.15802646
 20
85.5722695647
 10
202.5301531585
 20
85.2001577673
 10
202.6543394359
 20
85.0759565888
  0
LINE
  5
8E
330
1F
100
AcDbEntity
  8
0
  6
Continuous
 62
     7
370
    25
100
AcDbLine
 10
-389.8242385128
 20
258.4973096905
 30
0.0
 11
-389.8242385128
 21
155.7866454182
 31
0.0
  0
LINE
  5
8F
330
1F
100
AcDbEntity
  8
0
  6
Continuous
 62
     7
370
    25
100
AcDbLine
 10
-189.8242355325
 20
155.7866454182
 30
0.0
 11
-189.8242355325
 21
258.4973096905
 31
0.0
  0
LINE
  5
90
330
1F
100
AcDbEntity
  8
0
  6
Continuous
 62
     7
370
    25
100
AcDbLine
 10
-389.8242385128
 20
155.7866454182
 30
0.0
 11
-389.8242385128
 21
85.0759565888
 31
0.0
  0
LINE
  5
91
330
1F
100
AcDbEntity
  8
0
  6
Continuous
 62
     7
370
    25
100
AcDbLine
 10
-189.8242355325
 20
85.0759565888
 30
0.0
 11
-189.8242355325
 21
155.7866454182
 31
0.0
  0
LINE
  5
92
330
1F
100
AcDbEntity
  8
0
  6
Continuous
 62
     7
370
    25
100
AcDbLine
 10
-389.8242385128
 20
85.0759565888
 30
0.0
 11
-389.8242385128
 21
-52.5026798191
 31
0.0
  0
LINE
  5
93
330
1F
100
AcDbEntity
  8
0
  6
Continuous
 62
     7
370
    25
100
AcDbLine
 10
-189.8242355325
 20
-52.5026798191
 30
0.0
 11
-189.8242355325
 21
85.0759565888
 31
0.0
  0
LWPOLYLINE
  5
94
330
1F
100
AcDbEntity
  8
0
  6
Continuous
 62
     7
370
    25
100
AcDbPolyline
 90
      107
 70
   128
 43
0.0
 10
-389.8242385128
 20
258.4973096905
 10
-389.648613427
 20
254.3083846627
 10
-389.1223491171
 20
250.1341521798
 10
-388.2472933271
 20
245.9892749844
 10
-387.0265305975
 20
241.8883562146
 10
-385.4643375614
 20
237.845790392
 10
-383.5662052968
 20
233.8757336197
 10
-381.3388020733
 20
229.9921929894
 10
-378.7899435499
 20
226.2087583599
 10
-375.9286002257
 20
222.5387513695
 10
-372.7648080328
 20
218.995016819
 10
-369.3096832373
 20
215.5900716839
 10
-365.5753628352
 20
212.3358368931
 10
-361.5749598482
 20
209.2437267361
 10
-357.3225335219
 20
206.3246190606
 10
-352.8330222705
 20
203.5887956677
 10
-348.1221840718
 20
201.045823103
 10
-343.206574116
 20
198.7046420632
 10
-338.1034591236
 20
196.5735077916
 10
-332.830757741
 20
194.6598708687
 10
-327.4069958368
 20
192.9704666195
 10
-321.8512208202
 20
191.5112257061
 10
-316.1829532125
 20
190.2872890292
 10
-310.4220991024
 20
189.3029332219
 10
-304.5888933354
 20
188.5616153536
 10
-298.7038268709
 20
188.0659580288
 10
-292.7875697148
 20
187.8176897822
 10
-286.8609043305
 20
187.8176897822
 10
-280.9446471744
 20
188.0659580288
 10
-275.0595807099
 20
188.5616153536
 10
-269.2263749429
 20
189.3029332219
 10
-263.4655208328
 20
190.2872890292
 10
-257.7972532251
 20
191.5112257061
 10
-252.2414782086
 20
192.9704666195
 10
-246.8177163043
 20
194.6598708687
 10
-241.5450149217
 20
196.5735077916
 10
-236.4418999293
 20
198.7046420632
 10
-231.5262899735
 20
201.045823103
 10
-226.8154517749
 20
203.5887956677
 10
-222.3259405234
 20
206.3246190606
 10
-218.0735141971
 20
209.2437267361
 10
-214.0731112101
 20
212.3358368931
 10
-210.338790808
 20
215.5900716839
 10
-206.8836660126
 20
218.995016819
 10
-203.7198738196
 20
222.5387513695
 10
-200.8585304954
 20
226.2087583599
 10
-198.3096719721
 20
229.9921929894
 10
-196.0822687485
 20
233.8757336197
 10
-194.1841364839
 20
237.845790392
 10
-192.6219434479
 20
241.8883562146
 10
-191.4011807182
 20
245.9892749844
 10
-190.5261249283
 20
250.1341521798
 10
-189.9998606184
 20
254.3083846627
 10
-189.8242355325
 20
258.4973096905
 10
-189.9998606184
 20
262.6862645207
 10
-190.5261249283
 20
266.8604970036
 10
-191.4011807182
 20
271.0053443966
 10
-192.6219434479
 20
275.1062631665
 10
-194.1841364839
 20
279.1488587914
 10
-196.0822687485
 20
283.1188857613
 10
-198.3096719721
 20
287.002456194
 10
-200.8585304954
 20
290.7858908234
 10
-203.7198738196
 20
294.4558978138
 10
-206.8836660126
 20
297.999602562
 10
-210.338790808
 20
301.4045774994
 10
-214.0731112101
 20
304.6588122902
 10
-218.0735141971
 20
307.7509224472
 10
-222.3259405234
 20
310.6700003205
 10
-226.8154517749
 20
313.4058535157
 10
-231.5262899735
 20
315.9488260804
 10
-236.4418999293
 20
318.2899773178
 10
-241.5450149217
 20
320.4211413918
 10
-246.8177163043
 20
322.3347783146
 10
-252.2414782086
 20
324.0241825638
 10
-257.7972532251
 20
325.4834234772
 10
-263.4655208328
 20
326.707345253
 10
-269.2263749429
 20
327.6917159615
 10
-275.0595807099
 20
328.4330189286
 10
-280.9446471744
 20
328.9286911545
 10
-286.8609043305
 20
329.1769445
 10
-292.7875697148
 20
329.1769445
 10
-298.7038268709
 20
328.9286911545
 10
-304.5888933354
 20
328.4330189286
 10
-310.4220991024
 20
327.6917159615
 10
-316.1829532125
 20
326.707345253
 10
-321.8512208202
 20
325.4834234772
 10
-327.4069958368
 20
324.0241825638
 10
-332.830757741
 20
322.3347783146
 10
-338.1034591236
 20
320.4211413918
 10
-343.206574116
 20
318.2899773178
 10
-348.1221840718
 20
315.9488260804
 10
-352.8330222705
 20
313.4058535157
 10
-357.3225335219
 20
310.6700003205
 10
-361.5749598482
 20
307.7509224472
 10
-365.5753628352
 20
304.6588122902
 10
-369.3096832373
 20
301.4045774994
 10
-372.7648080328
 20
297.999602562
 10
-375.9286002257
 20
294.4558978138
 10
-378.7899435499
 20
290.7858908234
 10
-381.3388020733
 20
287.002456194
 10
-383.5662052968
 20
283.1188857613
 10
-385.4643375614
 20
279.1488587914
 10
-387.0265305975
 20
275.1062631665
 10
-388.2472933271
 20
271.0053443966
 10
-389.1223491171
 20
266.8604970036
 10
-389.648613427
 20
262.6862645207
 10
-389.8242385128
 20
258.4973096905
  0
LWPOLYLINE
  5
95
330
1F
100
AcDbEntity
  8
0
  6
Continuous
 62
     7
370
    25
100
AcDbPolyline
 90
      100
 70
   128
 43
0.0
 10
-377.9242382386
 20
258.4973096905
 10
-377.7468622663
 20
262.4483823834
 10
-377.2154570558
 20
266.3835406361
 10
-376.3321534732
 20
270.2869296132
 10
-375.1005203464
 20
274.142873293
 10
-373.5255048611
 20
277.9357850609
 10
-371.613454912
 20
281.6504359303
 10
-369.3720669487
 20
285.2718651352
 10
-366.8103636244
 20
288.7854695378
 10
-363.9386714437
 20
292.1771526394
 10
-360.7685462573
 20
295.4331755696
 10
-357.3127509096
 20
298.540484911
 10
-353.5852030852
 20
301.4865636883
 10
-349.600915704
 20
304.2595207749
 10
-345.3759261408
 20
306.8482101021
 10
-340.9272515216
 20
309.2422306595
 10
-336.2727993169
 20
311.4318966923
 10
-331.4313189128
 20
313.4084463177
 10
-326.422301028
 20
315.163862711
 10
-321.2659143844
 20
316.6910827217
 10
-315.9829218873
 20
317.9840266762
 10
-310.5945986697
 20
319.037389761
 10
-305.1226417535
 20
319.846999651
 10
-299.5890825057
 20
320.4095780907
 10
-294.01620375
 20
320.7228601036
 10
-288.4264455877
 20
320.7855939923
 10
-282.8423156404
 20
320.5974817334
 10
-277.2862994113
 20
320.1593577919
 10
-271.7807692477
 20
319.4728910981
 10
-266.3478934207
 20
318.5409426747
 10
-261.0095486977
 20
317.3671782074
 10
-255.7872318664
 20
315.9563958702
 10
-250.7019684651
 20
314.3142581044
 10
-245.7742364147
 20
312.4473214207
 10
-241.0238803365
 20
310.3631854115
 10
-236.4700221458
 20
308.070194727
 10
-232.1310051718
 20
305.5775880871
 10
-228.0243010261
 20
302.8953790722
 10
-224.1664425471
 20
300.03444553
 10
-220.57296047
 20
297.0062315522
 10
-217.2583312729
 20
293.822956091
 10
-214.2358989456
 20
290.497434145
 10
-211.5178302863
 20
287.0430469571
 10
-209.115085099
 20
283.473742014
 10
-207.0373193362
 20
279.8038542328
 10
-205.2929074505
 20
276.0481655655
 10
-203.8888753393
 20
272.2218155919
 10
-202.8308705428
 20
268.3401823101
 10
-202.1231622436
 20
264.418941742
 10
-201.768589113
 20
260.4738593159
 10
-201.768589113
 20
256.5207898674
 10
-202.1231622436
 20
252.5757074414
 10
-202.8308705428
 20
248.6544370709
 10
-203.8888753393
 20
244.7728335915
 10
-205.2929074505
 20
240.9464836178
 10
-207.0373193362
 20
237.1907949505
 10
-209.115085099
 20
233.5209071694
 10
-211.5178302863
 20
229.9516022263
 10
-214.2358989456
 20
226.4972150383
 10
-217.2583312729
 20
223.1716930924
 10
-220.57296047
 20
219.9884176312
 10
-224.1664425471
 20
216.9602036534
 10
-228.0243010261
 20
214.0992403088
 10
-232.1310051718
 20
211.4170610962
 10
-236.4700221458
 20
208.9244544564
 10
-241.0238803365
 20
206.6314637719
 10
-245.7742364147
 20
204.5472979603
 10
-250.7019684651
 20
202.680391079
 10
-255.7872318664
 20
201.0382235108
 10
-261.0095486977
 20
199.6274411736
 10
-266.3478934207
 20
198.4537065087
 10
-271.7807692477
 20
197.521728283
 10
-277.2862994113
 20
196.8352913914
 10
-282.8423156404
 20
196.3971525488
 10
-288.4264455877
 20
196.2090551911
 10
-294.01620375
 20
196.2717741785
 10
-299.5890825057
 20
196.5850561915
 10
-305.1226417535
 20
197.1476346312
 10
-310.5945986697
 20
197.95722962
 10
-315.9829218873
 20
199.0106225071
 10
-321.2659143844
 20
200.3035366593
 10
-326.422301028
 20
201.8307864724
 10
-331.4313189128
 20
203.5862028656
 10
-336.2727993169
 20
205.5627226887
 10
-340.9272515216
 20
207.7524185238
 10
-345.3759261408
 20
210.1464092789
 10
-349.600915704
 20
212.7351284085
 10
-353.5852030852
 20
215.508085495
 10
-357.3127509096
 20
218.4541642723
 10
-360.7685462573
 20
221.5614736138
 10
-363.9386714437
 20
224.8174965439
 10
-366.8103636244
 20
228.2091498433
 10
-369.3720669487
 20
231.7227840481
 10
-371.613454912
 20
235.3441834507
 10
-373.5255048611
 20
239.0588641224
 10
-375.1005203464
 20
242.8517758904
 10
-376.3321534732
 20
246.7076897679
 10
-377.2154570558
 20
250.6111085472
 10
-377.7468622663
 20
254.5462668
 10
-377.9242382386
 20
258.4973096905
  0
LINE
  5
96
330
1F
100
AcDbEntity
  8
0
  6
Continuous
 62
     7
370
    25
100
AcDbLine
 10
-389.8242385128
 20
-52.5026798191
 30
0.0
 11
-189.8242355325
 21
-52.5026798191
 31
0.0
  0
LWPOLYLINE
  5
97
330
1F
100
AcDbEntity
  8
0
  6
Continuous
 62
     1
370
    25
100
AcDbPolyline
 90
       28
 70
   128
 43
0.0
 10
-289.8242370227
 20
85.0759565888
 10
-283.9001742193
 20
85.2001577673
 10
-277.9969199562
 20
85.5722695647
 10
-272.1352101305
 20
86.1910253821
 10
-266.3356316277
 20
87.05424965
 10
-260.6185608545
 20
88.1588727293
 10
-255.0040752628
 20
89.5010650216
 10
-249.511894677
 20
91.0760730563
 10
-244.1613123753
 20
92.8783834038
 10
-238.9711261728
 20
94.9016630707
 10
-233.9595601895
 20
97.1388042031
 10
-229.1442238727
 20
99.5819389878
 10
-224.542026315
 20
102.2225141583
 10
-220.1691315511
 20
105.0512164889
 10
-216.0409064033
 20
108.0581367073
 10
-212.1718497017
 20
111.2327098904
 10
-208.5755513051
 20
114.5637750683
 10
-205.2646399477
 20
118.0396348296
 10
-202.2507459858
 20
121.6480851231
 10
-199.5444566944
 20
125.3764450608
 10
-197.1552790144
 20
129.2116165219
 10
-195.0916022995
 20
133.1401437579
 10
-193.3606759646
 20
137.1482133923
 10
-191.9685871341
 20
141.221758729
 10
-190.9202159384
 20
145.3464597521
 10
-190.2192504146
 20
149.5078176318
 10
-189.8681567052
 20
153.6912441311
 10
-189.8242355325
 20
155.7866454182
  0
LWPOLYLINE
  5
98
330
1F
100
AcDbEntity
  8
0
  6
Continuous
 62
     1
370
    25
100
AcDbPolyline
 90
       28
 70
   128
 43
0.0
 10
-389.8242385128
 20
155.7866454182
 10
-389.7803173402
 20
153.6912441311
 10
-389.4292236307
 20
149.5078176318
 10
-388.728258107
 20
145.3464597521
 10
-387.6798869112
 20
141.221758729
 10
-386.2877980807
 20
137.1482133923
 10
-384.5568717459
 20
133.1401437579
 10
-382.493195031
 20
129.2116165219
 10
-380.1040173509
 20
125.3764450608
 10
-377.3977280596
 20
121.6480851231
 10
-374.3838340977
 20
118.0396348296
 10
-371.0729227402
 20
114.5637750683
 10
-367.4766243437
 20
111.2327098904
 10
-363.607567642
 20
108.0581367073
 10
-359.4793424943
 20
105.0512164889
 10
-355.1064477303
 20
102.2225141583
 10
-350.5042501726
 20
99.5819389878
 10
-345.6889138558
 20
97.1388042031
 10
-340.6773478725
 20
94.9016630707
 10
-335.48716167
 20
92.8783834038
 10
-330.1365793684
 20
91.0760730563
 10
-324.6443987825
 20
89.5010650216
 10
-319.0299131909
 20
88.1588727293
 10
-313.3128424176
 20
87.05424965
 10
-307.5132639149
 20
86.1910253821
 10
-301.6515540892
 20
85.5722695647
 10
-295.7482998261
 20
85.2001577673
 10
-289.8242370227
 20
85.0759565888
  0
ARC
  5
99
330
1F
100
AcDbEntity
  8
0
  6
Continuous
 62
     1
370
    25
100
AcDbCircle
 10
-289.8242370227
 20
100.0015081985
 30
0.0
 40
118.177613704797
100
AcDbArc
 50
65.0403865036
 51
114.9596134964
  0
LINE
  5
9A
330
1F
100
AcDbEntity
  8
0
  6
Continuous
 62
     1
370
    25
100
AcDbLine
 10
-289.8242370227
 20
85.0759565888
 30
0.0
 11
-189.8242355325
 21
85.0759565888
 31
0.0
  0
LINE
  5
9B
330
1F
100
AcDbEntity
  8
0
  6
Continuous
 62
     1
370
    25
100
AcDbLine
 10
-389.8242385128
 20
85.0759565888
 30
0.0
 11
-289.8242370227
 21
85.0759565888
 31
0.0
  0
LINE
  5
9C
330
1F
100
AcDbEntity
  8
0
  6
Continuous
 62
     7
370
    25
100
AcDbLine
 10
234.6543372305
 20
663.9588740367
 30
0.0
 11
131.9436599197
 21
663.9588740367
 31
0.0
  0
LINE
  5
9D
330
1F
100
AcDbEntity
  8
0
  6
Continuous
 62
     7
370
    25
100
AcDbLine
 10
131.9436599197
 20
463.9588710565
 30
0.0
 11
234.6543372305
 21
463.9588710565
 31
0.0
  0
LINE
  5
9E
330
1F
100
AcDbEntity
  8
0
  6
Continuous
 62
     7
370
    25
100
AcDbLine
 10
131.9436599197
 20
663.9588740367
 30
0.0
 11
102.6543379458
 21
663.9588740367
 31
0.0
  0
LINE
  5
9F
330
1F
100
AcDbEntity
  8
0
  6
Continuous
 62
     7
370
    25
100
AcDbLine
 10
102.6543379458
 20
463.9588710565
 30
0.0
 11
131.9436599197
 21
463.9588710565
 31
0.0
  0
CIRCLE
  5
A0
330
1F
100
AcDbEntity
  8
0
  6
Continuous
 62
     7
370
    25
100
AcDbCircle
 10
102.6543379458
 20
563.9588725466
 30
0.0
 40
88.09999999999991
  0
CIRCLE
  5
A1
330
1F
100
AcDbEntity
  8
0
  6
Continuous
 62
     7
370
    25
100
AcDbCircle
 10
102.6543379458
 20
563.9588725466
 30
0.0
 40
100.0
  0
LWPOLYLINE
  5
A2
330
1F
100
AcDbEntity
  8
0
  6
Continuous
 62
     7
370
    25
100
AcDbPolyline
 90
       55
 70
   128
 43
0.0
 10
234.6543372305
 20
663.9588740367
 10
238.8432771595
 20
663.7832489509
 10
243.0175096425
 20
663.256984641
 10
247.1623719366
 20
662.381928851
 10
251.2632907065
 20
661.1611661214
 10
255.3058714302
 20
659.5989730853
 10
259.2759133013
 20
657.7008408207
 10
263.1594688328
 20
655.4734375972
 10
266.9429034623
 20
652.9245790738
 10
270.6129253539
 20
650.0632357496
 10
274.156630102
 20
646.8994435567
 10
277.5615901383
 20
643.4443187613
 10
280.8158398302
 20
639.7099983591
 10
283.9079350861
 20
635.7095953721
 10
286.8270278605
 20
631.4571690458
 10
289.5628661545
 20
626.9676577944
 10
292.1058387192
 20
622.2568195957
 10
294.4470048579
 20
617.3412096399
 10
296.5781540306
 20
612.2380946476
 10
298.4917909535
 20
606.9653932649
 10
300.1811952027
 20
601.5416313607
 10
301.6404212149
 20
595.9858563441
 10
302.864372793
 20
590.3175887364
 10
303.8487286004
 20
584.5567346263
 10
304.5900464686
 20
578.7235288594
 10
305.0857037934
 20
572.8384623948
 10
305.3339571389
 20
566.9222052387
 10
305.3339571389
 20
560.9955398544
 10
305.0857037934
 20
555.0792826984
 10
304.5900464686
 20
549.1942162338
 10
303.8487286004
 20
543.3610104668
 10
302.864372793
 20
537.6001563567
 10
301.6404212149
 20
531.931888749
 10
300.1811952027
 20
526.3761137325
 10
298.4917909535
 20
520.9523518283
 10
296.5781540306
 20
515.6796504456
 10
294.4470048579
 20
510.5765354532
 10
292.1058387192
 20
505.6609254974
 10
289.5628661545
 20
500.9500872988
 10
286.8270278605
 20
496.4605760473
 10
283.9079350861
 20
492.2081497211
 10
280.8158398302
 20
488.2077467341
 10
277.5615901383
 20
484.4734263319
 10
274.156630102
 20
481.0183015365
 10
270.6129253539
 20
477.8545093435
 10
266.9429034623
 20
474.9931660194
 10
263.1594688328
 20
472.444307496
 10
259.2759133013
 20
470.2169042725
 10
255.3058714302
 20
468.3187720079
 10
251.2632907065
 20
466.7565789718
 10
247.1623719366
 20
465.5358162421
 10
243.0175096425
 20
464.6607604522
 10
238.8432771595
 20
464.1344961423
 10
234.6543372305
 20
463.9588710565
 10
234.6543372305
 20
463.9588710565
  0
ARC
  5
A3
330
1F
100
AcDbEntity
  8
0
  6
Continuous
 62
     7
370
    25
100
AcDbCircle
 10
292.2955640579
 20
563.9588725466
 30
0.0
 40
119.9910023330227
100
AcDbArc
 50
159.3982288736
 51
200.6017711264
  0
LWPOLYLINE
  5
A4
330
1F
100
AcDbEntity
  8
0
  6
Continuous
 62
     1
370
    25
100
AcDbPolyline
 90
       28
 70
   128
 43
0.0
 10
202.6543394359
 20
563.9588725466
 10
202.5301531585
 20
558.0348097432
 10
202.15802646
 20
552.1315554801
 10
201.5392706426
 20
546.2698456544
 10
200.6760612758
 20
540.4702671516
 10
199.5714232953
 20
534.7531963784
 10
198.2292384537
 20
529.1387107867
 10
196.654230419
 20
523.6465302009
 10
194.8519126209
 20
518.2959478993
 10
192.8286404046
 20
513.1057616967
 10
190.5914992722
 20
508.0941957134
 10
188.1483570369
 20
503.2788593966
 10
185.5077967676
 20
498.6766618389
 10
182.6790869864
 20
494.303767075
 10
179.6721667679
 20
490.1755419273
 10
176.4976010354
 20
486.3064852256
 10
173.1665358575
 20
482.710186829
 10
169.6906760963
 20
479.3992754716
 10
166.0822258027
 20
476.3853815097
 10
162.3538621398
 20
473.6790922183
 10
158.5186832281
 20
471.2899145383
 10
154.5901597174
 20
469.2262378234
 10
150.5820863577
 20
467.4953114885
 10
146.5085484715
 20
466.1032226581
 10
142.3838474484
 20
465.0548514623
 10
138.2224783929
 20
464.3538859386
 10
134.0390518936
 20
464.0027922291
 10
131.9436599197
 20
463.9588710565
  0
LWPOLYLINE
  5
A5
330
1F
100
AcDbEntity
  8
0
  6
Continuous
 62
     1
370
    25
100
AcDbPolyline
 90
       28
 70
   128
 43
0.0
 10
131.9436599197
 20
663.9588740367
 10
134.0390518936
 20
663.9149528641
 10
138.2224783929
 20
663.5638591546
 10
142.3838474484
 20
662.8628936309
 10
146.5085484715
 20
661.8145224351
 10
150.5820863577
 20
660.4224336046
 10
154.5901597174
 20
658.6915072698
 10
158.5186832281
 20
656.6278305549
 10
162.3538621398
 20
654.2386528749
 10
166.0822258027
 20
651.5323635835
 10
169.6906760963
 20
648.5184696216
 10
173.1665358575
 20
645.2075582642
 10
176.4976010354
 20
641.6112598676
 10
179.6721667679
 20
637.7422031659
 10
182.6790869864
 20
633.6139780182
 10
185.5077967676
 20
629.2410832543
 10
188.1483570369
 20
624.6388856966
 10
190.5914992722
 20
619.8235493797
 10
192.8286404046
 20
614.8119833964
 10
194.8519126209
 20
609.6217971939
 10
196.654230419
 20
604.2712148923
 10
198.2292384537
 20
598.7790343064
 10
199.5714232953
 20
593.1645487148
 10
200.6760612758
 20
587.4474779415
 10
201.5392706426
 20
581.6478994388
 10
202.15802646
 20
575.7861896131
 10
202.5301531585
 20
569.88293535
 10
202.6543394359
 20
563.9588725466
  0
LWPOLYLINE
  5
A6
330
1F
100
AcDbEntity
  8
0
  6
Continuous
 62
     1
370
    25
100
AcDbPolyline
 90
       45
 70
   128
 43
0.0
 10
119.811626214
 20
650.3720548648
 10
116.2981177377
 20
649.2351558704
 10
112.5051910686
 20
647.6601403851
 10
108.7905355426
 20
645.7480904359
 10
105.1691098301
 20
643.5067024726
 10
101.6554957651
 20
640.9449991483
 10
98.2638411852
 20
638.0733069677
 10
95.0078038195
 20
634.9031817812
 10
91.9004940124
 20
631.4473864335
 10
88.954423617
 20
627.7198386091
 10
86.1814562859
 20
623.735551228
 10
83.5927557828
 20
619.5105616647
 10
81.1987482639
 20
615.0618870455
 10
79.0090729179
 20
610.4074348408
 10
77.0325456443
 20
605.5659544367
 10
75.2771273883
 20
600.556936552
 10
73.7498850258
 20
595.4005499083
 10
72.4569671484
 20
590.1175574112
 10
71.4035817119
 20
584.7292341936
 10
70.5939718219
 20
579.2572772774
 10
70.0313933822
 20
573.7237180296
 10
69.7181113692
 20
568.150839274
 10
69.6553923818
 20
562.5610811116
 10
69.8434860142
 20
556.9769511643
 10
70.2816360327
 20
551.4209349352
 10
70.9680766495
 20
545.9154047716
 10
71.900045562
 20
540.4825289446
 10
73.0737876775
 20
535.1441842217
 10
74.4845774653
 20
529.9218673903
 10
76.1267357202
 20
524.836603989
 10
77.9936481895
 20
519.9088719386
 10
80.0777990999
 20
515.1585158605
 10
82.3707953723
 20
510.6046576697
 10
84.8634038748
 20
506.2656406957
 10
87.5455868127
 20
502.1589365501
 10
90.406546432
 20
498.301078071
 10
93.4347613411
 20
494.7075959939
 10
96.6180377336
 20
491.3929667968
 10
99.943557817
 20
488.3705344695
 10
103.3979312097
 20
485.6524658102
 10
106.9672480853
 20
483.2497206229
 10
110.6371358665
 20
481.1719548601
 10
114.3928180145
 20
479.4275429744
 10
118.2191707822
 20
478.0235108632
 10
119.811626214
 20
477.5456902284
  0
INSERT
  5
B2
330
1F
100
AcDbEntity
  8
FORMAT
 62
     7
100
AcDbBlockReference
  2
SW_CENTERMARKSYMBOL_0
 10
102.6543379458
 20
563.9588725466
 30
0.0
  0
LINE
  5
B3
330
1F
100
AcDbEntity
  8
0
  6
Continuous
 62
     7
370
    25
100
AcDbLine
 10
457.5922643932
 20
85.0759565888
 30
0.0
 11
457.5922643932
 21
-52.5026798191
 31
0.0
  0
LINE
  5
B4
330
1F
100
AcDbEntity
  8
0
  6
Continuous
 62
     7
370
    25
100
AcDbLine
 10
657.5922673734
 20
-52.5026798191
 30
0.0
 11
657.5922673734
 21
85.0759565888
 31
0.0
  0
LINE
  5
B5
330
1F
100
AcDbEntity
  8
0
  6
Continuous
 62
     7
370
    25
100
AcDbLine
 10
657.5922673734
 20
85.0759565888
 30
0.0
 11
657.5922673734
 21
155.7866454182
 31
0.0
  0
LINE
  5
B6
330
1F
100
AcDbEntity
  8
0
  6
Continuous
 62
     7
370
    25
100
AcDbLine
 10
457.5922643932
 20
155.7866454182
 30
0.0
 11
457.5922643932
 21
85.0759565888
 31
0.0
  0
LINE
  5
B7
330
1F
100
AcDbEntity
  8
0
  6
Continuous
 62
     7
370
    25
100
AcDbLine
 10
457.5922643932
 20
258.4973096905
 30
0.0
 11
457.5922643932
 21
155.7866454182
 31
0.0
  0
LINE
  5
B8
330
1F
100
AcDbEntity
  8
0
  6
Continuous
 62
     7
370
    25
100
AcDbLine
 10
657.5922673734
 20
155.7866454182
 30
0.0
 11
657.5922673734
 21
258.4973096905
 31
0.0
  0
LINE
  5
B9
330
1F
100
AcDbEntity
  8
0
  6
Continuous
 62
     7
370
    25
100
AcDbLine
 10
457.5922643932
 20
-52.5026798191
 30
0.0
 11
657.5922673734
 21
-52.5026798191
 31
0.0
  0
LWPOLYLINE
  5
BA
330
1F
100
AcDbEntity
  8
0
  6
Continuous
 62
     7
370
    25
100
AcDbPolyline
 90
       54
 70
   128
 43
0.0
 10
457.5922643932
 20
258.4973096905
 10
457.767889479
 20
262.6862645207
 10
458.2941537889
 20
266.8604970036
 10
459.1692095789
 20
271.0053443966
 10
460.3899723085
 20
275.1062631665
 10
461.9521653446
 20
279.1488587914
 10
463.8502976092
 20
283.1188857613
 10
466.0777008327
 20
287.002456194
 10
468.6265593561
 20
290.7858908234
 10
471.4879026803
 20
294.4558978138
 10
474.6516948732
 20
297.999602562
 10
478.1068196686
 20
301.4045774994
 10
481.8411400708
 20
304.6588122902
 10
485.8415430578
 20
307.7509224472
 10
490.0939693841
 20
310.6700003205
 10
494.5834806355
 20
313.4058535157
 10
499.2943188342
 20
315.9488260804
 10
504.20992879
 20
318.2899773178
 10
509.3130437823
 20
320.4211413918
 10
514.585745165
 20
322.3347783146
 10
520.0095070692
 20
324.0241825638
 10
525.5652820858
 20
325.4834234772
 10
531.2335496935
 20
326.707345253
 10
536.9944038036
 20
327.6917159615
 10
542.8276095706
 20
328.4330189286
 10
548.7126760351
 20
328.9286911545
 10
554.6289331912
 20
329.1769445
 10
560.5555985755
 20
329.1769445
 10
566.4718557315
 20
328.9286911545
 10
572.3569221961
 20
328.4330189286
 10
578.1901279631
 20
327.6917159615
 10
583.9509820732
 20
326.707345253
 10
589.6192496809
 20
325.4834234772
 10
595.1750246974
 20
324.0241825638
 10
600.5987866017
 20
322.3347783146
 10
605.8714879843
 20
320.4211413918
 10
610.9746029767
 20
318.2899773178
 10
615.8902129325
 20
315.9488260804
 10
620.6010511311
 20
313.4058535157
 10
625.0905623826
 20
310.6700003205
 10
629.3429887088
 20
307.7509224472
 10
633.3433916958
 20
304.6588122902
 10
637.077712098
 20
301.4045774994
 10
640.5328368934
 20
297.999602562
 10
643.6966290864
 20
294.4558978138
 10
646.5579724106
 20
290.7858908234
 10
649.1068309339
 20
287.002456194
 10
651.3342341574
 20
283.1188857613
 10
653.232366422
 20
279.1488587914
 10
654.7945594581
 20
275.1062631665
 10
656.0153221878
 20
271.0053443966
 10
656.8903779777
 20
266.8604970036
 10
657.4166422876
 20
262.6862645207
 10
657.5922673734
 20
258.4973096905
  0
LINE
  5
BB
330
1F
100
AcDbEntity
  8
0
  6
Continuous
 62
     1
370
    25
100
AcDbLine
 10
457.5922643932
 20
85.0759565888
 30
0.0
 11
657.5922673734
 21
85.0759565888
 31
0.0
  0
LWPOLYLINE
  5
BC
330
1F
100
AcDbEntity
  8
0
  6
Continuous
 62
     1
370
    25
100
AcDbPolyline
 90
       55
 70
   128
 43
0.0
 10
457.5922643932
 20
155.7866454182
 10
457.6361855658
 20
157.8820318041
 10
457.9872792753
 20
162.0654583035
 10
458.688244799
 20
166.2268310843
 10
459.7366159948
 20
170.3515321074
 10
461.1287048253
 20
174.425062543
 10
462.8596311601
 20
178.4331470786
 10
464.923307875
 20
182.3616594134
 10
467.312485555
 20
186.1968457756
 10
470.0187748464
 20
189.9252057133
 10
473.0326688083
 20
193.5336560069
 10
476.3435801657
 20
197.0095157681
 10
479.9398785623
 20
200.340580946
 10
483.808935264
 20
203.5151541291
 10
487.9371604117
 20
206.5220594464
 10
492.3100551757
 20
209.3507766781
 10
496.9122527333
 20
211.9913518486
 10
501.7275890502
 20
214.4344866333
 10
506.7391550335
 20
216.6716277657
 10
511.929341236
 20
218.6949074326
 10
517.2799235376
 20
220.497202879
 10
522.7721041235
 20
222.0722258149
 10
528.3865897151
 20
223.4144032059
 10
534.1036604884
 20
224.5190560875
 10
539.9032389911
 20
225.3822505532
 10
545.7649488168
 20
226.0010063706
 10
551.6682030799
 20
226.3731479702
 10
557.5922658833
 20
226.4973342476
 10
563.5163286867
 20
226.3731479702
 10
569.4195829498
 20
226.0010063706
 10
575.2812927755
 20
225.3822505532
 10
581.0808712783
 20
224.5190560875
 10
586.7979420515
 20
223.4144032059
 10
592.4124276432
 20
222.0722258149
 10
597.904608229
 20
220.497202879
 10
603.2551905306
 20
218.6949074326
 10
608.4453767332
 20
216.6716277657
 10
613.4569427165
 20
214.4344866333
 10
618.2722790333
 20
211.9913518486
 10
622.874476591
 20
209.3507766781
 10
627.2473713549
 20
206.5220594464
 10
631.3755965027
 20
203.5151541291
 10
635.2446532043
 20
200.340580946
 10
638.8409516009
 20
197.0095157681
 10
642.1518629583
 20
193.5336560069
 10
645.1657569202
 20
189.9252057133
 10
647.8720462116
 20
186.1968457756
 10
650.2612238916
 20
182.3616594134
 10
652.3249006065
 20
178.4331470786
 10
654.0558269414
 20
174.425062543
 10
655.4479157718
 20
170.3515321074
 10
656.4962869676
 20
166.2268310843
 10
657.1972524913
 20
162.0654583035
 10
657.5483462008
 20
157.8820318041
 10
657.5922673734
 20
155.7866454182
  0
LINE
  5
BD
330
1F
100
AcDbEntity
  8
0
  6
Continuous
 62
     7
370
    25
100
AcDbLine
 10
234.6543372305
 20
-247.2476507065
 30
0.0
 11
131.9436599197
 21
-247.2476507065
 31
0.0
  0
LINE
  5
BE
330
1F
100
AcDbEntity
  8
0
  6
Continuous
 62
     7
370
    25
100
AcDbLine
 10
131.9436599197
 20
-447.2476536867
 30
0.0
 11
234.6543372305
 21
-447.2476536867
 31
0.0
  0
LINE
  5
BF
330
1F
100
AcDbEntity
  8
0
  6
Continuous
 62
     7
370
    25
100
AcDbLine
 10
102.6543379458
 20
-447.2476536867
 30
0.0
 11
131.9436599197
 21
-447.2476536867
 31
0.0
  0
LINE
  5
C0
330
1F
100
AcDbEntity
  8
0
  6
Continuous
 62
     7
370
    25
100
AcDbLine
 10
131.9436599197
 20
-247.2476507065
 30
0.0
 11
102.6543379458
 21
-247.2476507065
 31
0.0
  0
LWPOLYLINE
  5
C1
330
1F
100
AcDbEntity
  8
0
  6
Continuous
 62
     7
370
    25
100
AcDbPolyline
 90
      107
 70
   128
 43
0.0
 10
234.6543372305
 20
-447.2476536867
 10
238.8432771595
 20
-447.0720286009
 10
243.0175096425
 20
-446.545764291
 10
247.1623719366
 20
-445.670708501
 10
251.2632907065
 20
-444.4499457714
 10
255.3058714302
 20
-442.8877527353
 10
259.2759133013
 20
-440.9896204707
 10
263.1594688328
 20
-438.7622172472
 10
266.9429034623
 20
-436.2133587238
 10
270.6129253539
 20
-433.3520153996
 10
274.156630102
 20
-430.1882232067
 10
277.5615901383
 20
-426.7330984112
 10
280.8158398302
 20
-422.9987780091
 10
283.9079350861
 20
-418.9983750221
 10
286.8270278605
 20
-414.7459486958
 10
289.5628661545
 20
-410.2564374444
 10
292.1058387192
 20
-405.5455992457
 10
294.4470048579
 20
-400.6299892899
 10
296.5781540306
 20
-395.5268742975
 10
298.4917909535
 20
-390.2541729149
 10
300.1811952027
 20
-384.8304110107
 10
301.6404212149
 20
-379.2746359941
 10
302.864372793
 20
-373.6063683864
 10
303.8487286004
 20
-367.8455142763
 10
304.5900464686
 20
-362.0123085093
 10
305.0857037934
 20
-356.1272420448
 10
305.3339571389
 20
-350.2109848887
 10
305.3339571389
 20
-344.2843195044
 10
305.0857037934
 20
-338.3680623484
 10
304.5900464686
 20
-332.4829958838
 10
303.8487286004
 20
-326.6497901168
 10
302.864372793
 20
-320.8889360067
 10
301.6404212149
 20
-315.220668399
 10
300.1811952027
 20
-309.6648933825
 10
298.4917909535
 20
-304.2411314782
 10
296.5781540306
 20
-298.9684300956
 10
294.4470048579
 20
-293.8653151032
 10
292.1058387192
 20
-288.9497051474
 10
289.5628661545
 20
-284.2388669488
 10
286.8270278605
 20
-279.7493556973
 10
283.9079350861
 20
-275.496929371
 10
280.8158398302
 20
-271.496526384
 10
277.5615901383
 20
-267.7622059819
 10
274.156630102
 20
-264.3070811865
 10
270.6129253539
 20
-261.1432889935
 10
266.9429034623
 20
-258.2819456693
 10
263.1594688328
 20
-255.733087146
 10
259.2759133013
 20
-253.5056839225
 10
255.3058714302
 20
-251.6075516578
 10
251.2632907065
 20
-250.0453586218
 10
247.1623719366
 20
-248.8245958921
 10
243.0175096425
 20
-247.9495401022
 10
238.8432771595
 20
-247.4232757923
 10
234.6543372305
 20
-247.2476507065
 10
230.4653973015
 20
-247.4232757923
 10
226.2911648186
 20
-247.9495401022
 10
222.146309975
 20
-248.8245958921
 10
218.0453837546
 20
-250.0453586218
 10
214.0028030308
 20
-251.6075516578
 10
210.0327611597
 20
-253.5056839225
 10
206.1492056282
 20
-255.733087146
 10
202.3657784494
 20
-258.2819456693
 10
198.6957565578
 20
-261.1432889935
 10
195.1520443591
 20
-264.3070811865
 10
191.7470917734
 20
-267.7622059819
 10
188.4928420814
 20
-271.496526384
 10
185.400739375
 20
-275.496929371
 10
182.4816466006
 20
-279.7493556973
 10
179.7458083065
 20
-284.2388669488
 10
177.2028431924
 20
-288.9497051474
 10
174.8616696032
 20
-293.8653151032
 10
172.730527881
 20
-298.9684300956
 10
170.8168909582
 20
-304.2411314782
 10
169.127486709
 20
-309.6648933825
 10
167.6682457956
 20
-315.220668399
 10
166.444301668
 20
-320.8889360067
 10
165.4599458607
 20
-326.6497901168
 10
164.7186354431
 20
-332.4829958838
 10
164.2229781183
 20
-338.3680623484
 10
163.9747135969
 20
-344.2843195044
 10
163.9747135969
 20
-350.2109848887
 10
164.2229781183
 20
-356.1272420448
 10
164.7186354431
 20
-362.0123085093
 10
165.4599458607
 20
-367.8455142763
 10
166.444301668
 20
-373.6063683864
 10
167.6682457956
 20
-379.2746359941
 10
169.127486709
 20
-384.8304110107
 10
170.8168909582
 20
-390.2541729149
 10
172.730527881
 20
-395.5268742975
 10
174.8616696032
 20
-400.6299892899
 10
177.2028431924
 20
-405.5455992457
 10
179.7458083065
 20
-410.2564374444
 10
182.4816466006
 20
-414.7459486958
 10
185.400739375
 20
-418.9983750221
 10
188.4928420814
 20
-422.9987780091
 10
191.7470917734
 20
-426.7330984112
 10
195.1520443591
 20
-430.1882232067
 10
198.6957565578
 20
-433.3520153996
 10
202.3657784494
 20
-436.2133587238
 10
206.1492056282
 20
-438.7622172472
 10
210.0327611597
 20
-440.9896204707
 10
214.0028030308
 20
-442.8877527353
 10
218.0453837546
 20
-444.4499457714
 10
222.146309975
 20
-445.670708501
 10
226.2911648186
 20
-446.545764291
 10
230.4653973015
 20
-447.0720286009
 10
234.6543372305
 20
-447.2476536867
  0
LWPOLYLINE
  5
C2
330
1F
100
AcDbEntity
  8
0
  6
Continuous
 62
     7
370
    25
100
AcDbPolyline
 90
      100
 70
   128
 43
0.0
 10
234.6543372305
 20
-435.3476534125
 10
230.7032794388
 20
-435.1702774402
 10
226.7681211861
 20
-434.6388722297
 10
222.8647247585
 20
-433.7555686471
 10
219.0087959798
 20
-432.5239355203
 10
215.2158693107
 20
-430.9489200351
 10
211.5012109908
 20
-429.0368700859
 10
207.8797892364
 20
-426.7954821226
 10
204.3661773833
 20
-424.2337787983
 10
200.9745166334
 20
-421.3620866176
 10
197.7184788021
 20
-418.1919614312
 10
194.6111694606
 20
-414.7361660835
 10
191.6650981339
 20
-411.0086182591
 10
188.8921335967
 20
-407.0243308779
 10
186.3034368189
 20
-402.7993413147
 10
183.9094237121
 20
-398.3506666955
 10
181.7197502287
 20
-393.6962144908
 10
179.7432229551
 20
-388.8547340867
 10
177.9878065618
 20
-383.8457162019
 10
176.4605641993
 20
-378.6893295583
 10
175.1676425966
 20
-373.4063370612
 10
174.11425716
 20
-368.0180138436
 10
173.3046472701
 20
-362.5460569274
 10
172.7420688303
 20
-357.0124976796
 10
172.428794268
 20
-351.4396189239
 10
172.3660752805
 20
-345.8498607616
 10
172.5541651877
 20
-340.2657308143
 10
172.9923114808
 20
-334.7097145852
 10
173.678755823
 20
-329.2041844216
 10
174.6107265981
 20
-323.7713085946
 10
175.7844687136
 20
-318.4329638716
 10
177.1952585014
 20
-313.2106470403
 10
178.8374111684
 20
-308.125383639
 10
180.7043255003
 20
-303.1976515886
 10
182.7884764107
 20
-298.4472955105
 10
185.0814745458
 20
-293.8934373197
 10
187.5740811857
 20
-289.5544203457
 10
190.2562678488
 20
-285.4477162
 10
193.1172237428
 20
-281.589857721
 10
196.1454377206
 20
-277.9963756439
 10
199.3287131818
 20
-274.6817464468
 10
202.6542351278
 20
-271.6593141195
 10
206.1086074146
 20
-268.9412454602
 10
209.6779272588
 20
-266.5385002729
 10
213.34781504
 20
-264.4607345101
 10
217.1034962567
 20
-262.7163226244
 10
220.9298462304
 20
-261.3122905132
 10
224.8114646109
 20
-260.2542857167
 10
228.7327200802
 20
-259.5465774175
 10
232.6778174075
 20
-259.1920042869
 10
236.6308719548
 20
-259.1920042869
 10
240.5759543808
 20
-259.5465774175
 10
244.4972098502
 20
-260.2542857167
 10
248.3788282307
 20
-261.3122905132
 10
252.2051782044
 20
-262.7163226244
 10
255.9608668717
 20
-264.4607345101
 10
259.6307546528
 20
-266.5385002729
 10
263.2000595959
 20
-268.9412454602
 10
266.6544467839
 20
-271.6593141195
 10
269.9799538287
 20
-274.6817464468
 10
273.1632292899
 20
-277.9963756439
 10
276.1914581688
 20
-281.589857721
 10
279.0524066122
 20
-285.4477162
 10
281.734600726
 20
-289.5544203457
 10
284.2272073658
 20
-293.8934373197
 10
286.5201980503
 20
-298.4472955105
 10
288.6043489607
 20
-303.1976515886
 10
290.4712558421
 20
-308.125383639
 10
292.1134234103
 20
-313.2106470403
 10
293.5242057475
 20
-318.4329638716
 10
294.6979553135
 20
-323.7713085946
 10
295.6299186381
 20
-329.2041844216
 10
296.3163555296
 20
-334.7097145852
 10
296.7545092734
 20
-340.2657308143
 10
296.9426066311
 20
-345.8498607616
 10
296.8798876437
 20
-351.4396189239
 10
296.5666056307
 20
-357.0124976796
 10
296.004027191
 20
-362.5460569274
 10
295.194417301
 20
-368.0180138436
 10
294.1410244139
 20
-373.4063370612
 10
292.8481102618
 20
-378.6893295583
 10
291.3208753498
 20
-383.8457162019
 10
289.5654440554
 20
-388.8547340867
 10
287.5889242323
 20
-393.6962144908
 10
285.3992432984
 20
-398.3506666955
 10
283.0052376421
 20
-402.7993413147
 10
280.4165483149
 20
-407.0243308779
 10
277.6435763272
 20
-411.0086182591
 10
274.6974975499
 20
-414.7361660835
 10
271.5901882084
 20
-418.1919614312
 10
268.3341503771
 20
-421.3620866176
 10
264.9424970778
 20
-424.2337787983
 10
261.4288926752
 20
-426.7954821226
 10
257.8074634703
 20
-429.0368700859
 10
254.0928126009
 20
-430.9489200351
 10
250.2998859318
 20
-432.5239355203
 10
246.4439571532
 20
-433.7555686471
 10
242.540553275
 20
-434.6388722297
 10
238.6053950222
 20
-435.1702774402
 10
234.6543372305
 20
-435.3476534125
  0
ARC
  5
C3
330
1F
100
AcDbEntity
  8
0
  6
Continuous
 62
     7
370
    25
100
AcDbCircle
 10
102.6543379458
 20
-347.2476521966
 30
0.0
 40
100.0
100
AcDbArc
 50
90.0
 51
270.0
  0
ARC
  5
C4
330
1F
100
AcDbEntity
  8
0
  6
Continuous
 62
     7
370
    25
100
AcDbCircle
 10
102.6543379458
 20
-347.2476521966
 30
0.0
 40
88.10000000000001
100
AcDbArc
 50
331.3640309677
 51
28.6359690323
  0
LWPOLYLINE
  5
C5
330
1F
100
AcDbEntity
  8
0
  6
Continuous
 62
     1
370
    25
100
AcDbPolyline
 90
       55
 70
   128
 43
0.0
 10
131.9436599197
 20
-247.2476507065
 10
129.8482679459
 20
-247.2915718791
 10
125.6648414465
 20
-247.6426655885
 10
121.5034705283
 20
-248.3436311123
 10
117.3787722992
 20
-249.3920023081
 10
113.3052325504
 20
-250.7840911385
 10
109.2971610533
 20
-252.5150174734
 10
105.3686366113
 20
-254.5786941883
 10
101.5334576996
 20
-256.9678718683
 10
97.8050958993
 20
-259.6741611597
 10
94.1966465371
 20
-262.6880551216
 10
90.7207858445
 20
-265.998966479
 10
87.3897215979
 20
-269.5952648756
 10
84.2151549341
 20
-273.4643215772
 10
81.2082347157
 20
-277.592546725
 10
78.3795267971
 20
-281.9654414889
 10
75.7389628025
 20
-286.5676390466
 10
73.2958205672
 20
-291.3829753634
 10
71.0586831602
 20
-296.3945413467
 10
69.0354034933
 20
-301.5847275492
 10
67.2330931457
 20
-306.9353098509
 10
65.6580813857
 20
-312.4274904367
 10
64.3158965441
 20
-318.0419760284
 10
63.2112585636
 20
-323.7590468016
 10
62.3480491968
 20
-329.5586253044
 10
61.7292933794
 20
-335.4203351301
 10
61.3571704062
 20
-341.3235893932
 10
61.2329804035
 20
-347.2476521966
 10
61.3571704062
 20
-353.171715
 10
61.7292933794
 20
-359.0749692631
 10
62.3480491968
 20
-364.9366790888
 10
63.2112585636
 20
-370.7362575915
 10
64.3158965441
 20
-376.4533283648
 10
65.6580813857
 20
-382.0678139564
 10
67.2330931457
 20
-387.5599945423
 10
69.0354034933
 20
-392.9105768439
 10
71.0586831602
 20
-398.1007630464
 10
73.2958205672
 20
-403.1123290297
 10
75.7389628025
 20
-407.9276653465
 10
78.3795267971
 20
-412.5298629042
 10
81.2082347157
 20
-416.9027576682
 10
84.2151549341
 20
-421.0309828159
 10
87.3897215979
 20
-424.9000395176
 10
90.7207858445
 20
-428.4963379142
 10
94.1966465371
 20
-431.8072492716
 10
97.8050958993
 20
-434.8211432335
 10
101.5334576996
 20
-437.5274325248
 10
105.3686366113
 20
-439.9166102049
 10
109.2971610533
 20
-441.9802869198
 10
113.3052325504
 20
-443.7112132546
 10
117.3787722992
 20
-445.1033020851
 10
121.5034705283
 20
-446.1516732809
 10
125.6648414465
 20
-446.8526388046
 10
129.8482679459
 20
-447.2037325141
 10
131.9436599197
 20
-447.2476536867
  0
ARC
  5
C6
330
1F
100
AcDbEntity
  8
0
  6
Continuous
 62
     1
370
    25
100
AcDbCircle
 10
76.1585553451
 20
-347.2476521966
 30
0.0
 40
118.1775891747001
100
AcDbArc
 50
335.0403809681
 51
24.9596190319
  0
INSERT
  5
D2
330
1F
100
AcDbEntity
  8
FORMAT
 62
     7
100
AcDbBlockReference
  2
SW_CENTERMARKSYMBOL_1
 10
102.6543379458
 20
-347.2476521966
 30
0.0
  0
LINE
  5
D3
330
1F
100
AcDbEntity
  8
0
  6
Continuous
 62
     7
370
    25
100
AcDbLine
 10
423.3866574418
 20
-368.380616492
 30
0.0
 11
423.3866574418
 21
-480.7191879626
 31
0.0
  0
LINE
  5
D4
330
1F
100
AcDbEntity
  8
0
  6
Continuous
 62
     7
370
    25
100
AcDbLine
 10
623.386666663
 20
-480.7191879626
 30
0.0
 11
623.386666663
 21
-368.380616492
 31
0.0
  0
LINE
  5
D5
330
1F
100
AcDbEntity
  8
0
  6
Continuous
 62
     7
370
    25
100
AcDbLine
 10
530.1222131332
 20
-122.8920487261
 30
0.0
 11
457.4947986821
 21
-248.6864361783
 31
0.0
  0
LINE
  5
D6
330
1F
100
AcDbEntity
  8
0
  6
Continuous
 62
     7
370
    25
100
AcDbLine
 10
630.6998824495
 20
-348.6864420121
 30
0.0
 11
703.3272949249
 21
-222.8920678678
 31
0.0
  0
SPLINE
  5
D7
330
1F
100
AcDbEntity
  8
0
  6
Continuous
 62
     7
370
    25
100
AcDbSpline
210
0.0
220
0.0
230
1.0
 70
     8
 71
     3
 72
    24
 73
    20
 74
     0
 42
0.000000001
 43
0.00000001
 40
0.0
 40
0.0
 40
0.0
 40
0.0
 40
0.0362326152988548
 40
0.0985336904730674
 40
0.1609091327239009
 40
0.2233972761170251
 40
0.2860386065583821
 40
0.3488710781622668
 40
0.4119285200593206
 40
0.4752389438450295
 40
0.5388215507516617
 40
0.6026845190688365
 40
0.6668213437546809
 40
0.7312078660393951
 40
0.7957990381235472
 40
0.8605274483113508
 40
0.9252694451388265
 40
0.9851732352404875
 40
1.0
 40
1.0
 40
1.0
 40
1.0
 10
457.4947986820544
 20
-248.6864361782852
 30
0.0
 10
456.7243411689518
 20
-250.0368236329757
 30
0.0
 10
454.6291012451285
 20
-253.7091685184245
 30
0.0
 10
451.3764253823673
 20
-259.7986389746623
 30
0.0
 10
447.7961931772376
 20
-266.9760635444221
 30
0.0
 10
444.4332109640124
 20
-274.2586725346887
 30
0.0
 10
441.2890375019045
 20
-281.6386723937653
 30
0.0
 10
438.3704660406169
 20
-289.1111668340978
 30
0.0
 10
435.6837625939066
 20
-296.6703211418865
 30
0.0
 10
433.2362406434469
 20
-304.3100113889769
 30
0.0
 10
431.0359026425319
 20
-312.0233286734431
 30
0.0
 10
429.0914796999605
 20
-319.802210447148
 30
0.0
 10
427.4123875086939
 20
-327.637091553247
 30
0.0
 10
426.0083813857221
 20
-335.5164152033166
 30
0.0
 10
424.8897457502806
 20
-343.426292252882
 30
0.0
 10
424.0655107003698
 20
-351.3489444230805
 30
0.0
 10
423.5603666076716
 20
-359.070224898516
 30
0.0
 10
423.3973025550475
 20
-364.7449378447199
 30
0.0
 10
423.3884198057064
 20
-367.7787075439362
 30
0.0
 10
423.3866574417692
 20
-368.3806164920014
 30
0.0
  0
SPLINE
  5
D8
330
1F
100
AcDbEntity
  8
0
  6
Continuous
 62
     7
370
    25
100
AcDbSpline
210
0.0
220
0.0
230
1.0
 70
     8
 71
     3
 72
    21
 73
    17
 74
     0
 42
0.000000001
 43
0.00000001
 40
0.0
 40
0.0
 40
0.0
 40
0.0
 40
0.0819630370874362
 40
0.1613259100594543
 40
0.2387672219088332
 40
0.3148999622041873
 40
0.3902621900919556
 40
0.4653050187801416
 40
0.540388654062034
 40
0.6157531130069224
 40
0.6915255938370832
 40
0.7678131213836136
 40
0.8446407388109066
 40
0.9219642532598502
 40
0.999686118351861
 40
1.0
 40
1.0
 40
1.0
 40
1.0
 10
623.386124022295
 20
-368.4649292465059
 30
0.0
 10
623.389131165046
 20
-368.4073046177421
 30
0.0
 10
623.3950500530987
 20
-368.2938834219505
 30
0.0
 10
623.4492311055659
 20
-367.7549027469672
 30
0.0
 10
623.5633368508786
 20
-366.9633239999247
 30
0.0
 10
623.7569327964869
 20
-365.9100790962374
 30
0.0
 10
624.0454880125458
 20
-364.619132146617
 30
0.0
 10
624.442477087558
 20
-363.1084282992296
 30
0.0
 10
624.9584715114067
 20
-361.400869857418
 30
0.0
 10
625.600772747164
 20
-359.5225244165252
 30
0.0
 10
626.3726445387831
 20
-357.5026604814628
 30
0.0
 10
627.2743476544814
 20
-355.3741309548056
 30
0.0
 10
628.2982421104167
 20
-353.169024762066
 30
0.0
 10
629.4460630330659
 20
-350.9325084998606
 30
0.0
 10
630.2569152135393
 20
-349.4240584058701
 30
0.0
 10
630.6979241952496
 20
-348.6900665915211
 30
0.0
 10
630.6996980569965
 20
-348.6871142706933
 30
0.0
  0
LWPOLYLINE
  5
D9
330
1F
100
AcDbEntity
  8
0
  6
Continuous
 62
     7
370
    25
100
AcDbPolyline
 90
      107
 70
   128
 43
0.0
 10
452.67598288
 20
-439.8987817632
 10
456.9891135496
 20
-437.5522461717
 10
461.5354697324
 20
-435.3573370642
 10
466.2990823824
 20
-433.3217646614
 10
471.2632132741
 20
-431.4526734916
 10
476.4104300757
 20
-429.7566355474
 10
481.7226531064
 20
-428.2396050461
 10
487.1812231659
 20
-426.9069096852
 10
492.7669713408
 20
-425.7632346754
 10
498.4602624681
 20
-424.8125915668
 10
504.2411136732
 20
-424.0583228112
 10
510.0892128092
 20
-423.5030789513
 10
515.9840211901
 20
-423.1488079763
 10
521.9048368106
 20
-422.9967553222
 10
527.8308522987
 20
-423.047454747
 10
533.7412523793
 20
-423.3007268108
 10
539.6152849981
 20
-423.7556864785
 10
545.4323140042
 20
-424.4107309548
 10
551.1719060787
 20
-425.2635594532
 10
556.8139044913
 20
-426.311179278
 10
562.3384870524
 20
-427.5499088663
 10
567.7262530406
 20
-428.9753975567
 10
572.9582732527
 20
-430.5826362337
 10
578.0161677114
 20
-432.3659839402
 10
582.8821774471
 20
-434.319172819
 10
587.5392053271
 20
-436.4353438493
 10
591.9708916242
 20
-438.70706614
 10
596.1616769072
 20
-441.126354988
 10
600.0968417187
 20
-443.6847130311
 10
603.7625546483
 20
-446.3731580011
 10
607.1459436205
 20
-449.1822456283
 10
610.2351271751
 20
-452.1021059484
 10
613.019247889
 20
-455.1224869262
 10
615.4885342787
 20
-458.2327780268
 10
617.6343093617
 20
-461.4220516537
 10
619.4490367547
 20
-464.6791080089
 10
620.9263391128
 20
-467.9925039859
 10
622.0610323735
 20
-471.350603352
 10
622.8491310254
 20
-474.7416102032
 10
623.287858645
 20
-478.1536115432
 10
623.3756821406
 20
-481.5746274661
 10
623.1122906792
 20
-484.9926415694
 10
622.4986088572
 20
-488.3956420128
 10
621.5367940666
 20
-491.7716777831
 10
620.2302206894
 20
-495.1088921491
 10
618.5834800978
 20
-498.3955591582
 10
616.6023622152
 20
-501.6201429424
 10
614.2938160032
 20
-504.7713083633
 10
611.6659573643
 20
-507.8379894428
 10
608.7280151414
 20
-510.8094144538
 10
605.4903034584
 20
-513.6751462188
 10
601.9642065743
 20
-516.4251212668
 10
598.162100516
 20
-519.0496768258
 10
594.0973412247
 20
-521.539594162
 10
589.7842105551
 20
-523.8861297535
 10
585.2378543724
 20
-526.081038861
 10
580.4742417223
 20
-528.1166112638
 10
575.5101108306
 20
-529.9857024337
 10
570.362894029
 20
-531.6817403778
 10
565.0506709984
 20
-533.1987708791
 10
559.5921009388
 20
-534.53146624
 10
554.0063527639
 20
-535.6751412499
 10
548.3130616366
 20
-536.6257843584
 10
542.5322104316
 20
-537.380053114
 10
536.6841112956
 20
-537.9352969739
 10
530.7893029147
 20
-538.2895679489
 10
524.8684872941
 20
-538.441620603
 10
518.9424718061
 20
-538.3909211782
 10
513.0320717254
 20
-538.1376491144
 10
507.1580391067
 20
-537.6826894468
 10
501.3410101005
 20
-537.0276449704
 10
495.601418026
 20
-536.174816472
 10
489.9594196134
 20
-535.1271966473
 10
484.4348370524
 20
-533.8884670589
 10
479.0470710641
 20
-532.4629783685
 10
473.815050852
 20
-530.8557396915
 10
468.7571563933
 20
-529.072391985
 10
463.8911466577
 20
-527.1192031062
 10
459.2341187777
 20
-525.0030320759
 10
454.8024324806
 20
-522.7313097852
 10
450.6116471975
 20
-520.3120209373
 10
446.676482386
 20
-517.7536628941
 10
443.0107694564
 20
-515.0652179242
 10
439.6273804843
 20
-512.2561302969
 10
436.5381969296
 20
-509.3362699768
 10
433.7540762157
 20
-506.315888999
 10
431.2847898261
 20
-503.2055978984
 10
429.139014743
 20
-500.0163242715
 10
427.32428735
 20
-496.7592679163
 10
425.8469849919
 20
-493.4458719393
 10
424.7122917313
 20
-490.0877725732
 10
423.9241930793
 20
-486.696765722
 10
423.4854654597
 20
-483.284764382
 10
423.3976419642
 20
-479.8637484591
 10
423.6610334256
 20
-476.4457343558
 10
424.2747152475
 20
-473.0427339124
 10
425.2365300381
 20
-469.6666981421
 10
426.5431034154
 20
-466.3294837761
 10
428.189844007
 20
-463.042816767
 10
430.1709618896
 20
-459.8182329828
 10
432.4795081016
 20
-456.6670675619
 10
435.1073667404
 20
-453.6003864824
 10
438.0453089633
 20
-450.6289614714
 10
441.2830206463
 20
-447.7632297064
 10
444.8091175304
 20
-445.0132546584
 10
448.6112235887
 20
-442.3886990994
 10
452.67598288
 20
-439.8987817632
  0
LWPOLYLINE
  5
DA
330
1F
100
AcDbEntity
  8
0
  6
Continuous
 62
     7
370
    25
100
AcDbPolyline
 90
      100
 70
   128
 43
0.0
 10
461.09055377
 20
-444.7564101405
 10
457.2649142945
 20
-447.1097159832
 10
453.7055204122
 20
-449.5983538584
 10
450.4267122592
 20
-452.2123057255
 10
447.4416814698
 20
-454.9410425959
 10
444.7624589935
 20
-457.7735802278
 10
442.3998278382
 20
-460.6985112507
 10
440.3633026548
 20
-463.7040595294
 10
438.6610862739
 20
-466.7781235035
 10
437.300024924
 20
-469.908320287
 10
436.2856029639
 20
-473.0820495372
 10
435.6219112721
 20
-476.2865299502
 10
435.3116156366
 20
-479.5088600887
 10
435.3559620238
 20
-482.7360640021
 10
435.7547844804
 20
-485.9551444504
 10
436.5064629869
 20
-489.1531437311
 10
437.6079814094
 20
-492.3171832172
 10
439.054901158
 20
-495.4345181011
 10
440.8413901626
 20
-498.4926027844
 10
442.9602623854
 20
-501.4791197702
 10
445.4029844067
 20
-504.3820442926
 10
448.1597228399
 20
-507.1896838537
 10
451.2193660635
 20
-509.8907394312
 10
454.5696071979
 20
-512.474329049
 10
458.1969447634
 20
-514.9300550672
 10
462.0867861546
 20
-517.2480213369
 10
466.2234531555
 20
-519.4189032947
 10
470.5902980079
 20
-521.4339541397
 10
475.169736174
 20
-523.2850602437
 10
479.9433317003
 20
-524.9647660995
 10
484.8918485017
 20
-526.4663160926
 10
489.9953761435
 20
-527.7836541203
 10
495.2333575005
 20
-528.9114821383
 10
500.5847059774
 20
-529.8452548383
 10
506.0278660955
 20
-530.5812146235
 10
511.5409241276
 20
-531.1164007326
 10
517.1016792214
 20
-531.4486538019
 10
522.6877408635
 20
-531.5766356343
 10
528.2766210761
 20
-531.4998307198
 10
533.8458108079
 20
-531.2185538388
 10
539.3728826672
 20
-530.7339333349
 10
544.8355857521
 20
-530.0479202386
 10
550.211924676
 20
-529.1632791438
 10
555.480238593
 20
-528.0835669176
 10
560.6193289554
 20
-526.8131380233
 10
565.6084963922
 20
-525.3571049824
 10
570.4276500276
 20
-523.7213300109
 10
575.0573897988
 20
-521.912401829
 10
579.4790650669
 20
-519.9376018261
 10
583.6748811361
 20
-517.8048851473
 10
587.627934486
 20
-515.5228360232
 10
591.322308425
 20
-513.1006429642
 10
594.7431330183
 20
-510.5480641651
 10
597.8766280572
 20
-507.875372285
 10
600.710180439
 20
-505.0933341087
 10
603.2323769286
 20
-502.2131490539
 10
605.4330627698
 20
-499.2464153364
 10
607.303381856
 20
-496.2050824487
 10
608.8357912185
 20
-493.1013880519
 10
610.0241295148
 20
-489.9478366862
 10
610.8636078092
 20
-486.7571260181
 10
611.3508464515
 20
-483.5421012196
 10
611.4838908813
 20
-480.3157093486
 10
611.262195824
 20
-477.0909446036
 10
610.6866542658
 20
-473.8807890181
 10
609.7595842834
 20
-470.6981683601
 10
608.4847264096
 20
-467.555898909
 10
606.8672093891
 20
-464.4666311902
 10
604.9135422758
 20
-461.4428089167
 10
602.6315986277
 20
-458.4966051208
 10
600.0305559213
 20
-455.6398871783
 10
597.1209047704
 20
-452.8841491385
 10
593.914347511
 20
-450.2404957569
 10
590.4237988594
 20
-447.7195698831
 10
586.6633135549
 20
-445.3315228545
 10
582.6480431425
 20
-443.0859652173
 10
578.3941399903
 20
-440.9919478132
 10
573.9187465882
 20
-439.0578947738
 10
569.2398741283
 20
-437.2916003374
 10
564.3763727887
 20
-435.7001691145
 10
559.3478151707
 20
-434.2900157076
 10
554.1744554692
 20
-433.0668168099
 10
548.877123447
 20
-432.0354986598
 10
543.4771559461
 20
-431.2002096685
 10
537.9962849353
 20
-430.5643166185
 10
532.4565874608
 20
-430.1303818533
 10
526.8803723761
 20
-429.9001465498
 10
521.2900855124
 20
-429.8745459254
 10
515.7082411894
 20
-430.0536757829
 10
510.157316848
 20
-430.4368168412
 10
504.6596608548
 20
-431.0224301737
 10
499.2374134762
 20
-431.8081541663
 10
493.9124015112
 20
-432.7908227663
 10
488.7060750716
 20
-433.96648373
 10
483.6393969462
 20
-435.3304016642
 10
478.7327662097
 20
-436.8770838777
 10
474.0059431486
 20
-438.6003054726
 10
469.4779550893
 20
-440.4931211297
 10
465.1670407512
 20
-442.5479154804
 10
461.09055377
 20
-444.7564101405
  0
LWPOLYLINE
  5
DB
330
1F
100
AcDbEntity
  8
0
  6
Continuous
 62
     7
370
    25
100
AcDbPolyline
 90
      107
 70
   128
 43
0.0
 10
546.0140774909
 20
-132.0716627443
 10
549.1002910098
 20
-133.8538395908
 10
552.424044167
 20
-135.7731553673
 10
555.9736622853
 20
-137.8228684805
 10
559.7366593609
 20
-139.995744645
 10
563.6998328935
 20
-142.2841603096
 10
567.849258618
 20
-144.6801117848
 10
572.1703589932
 20
-147.1751331147
 10
576.647966422
 20
-149.7605029249
 10
581.2663390565
 20
-152.4271075414
 10
586.0092556283
 20
-155.1656295824
 10
590.8600681324
 20
-157.9663837056
 10
595.8017334367
 20
-160.8195660348
 10
600.8168870398
 20
-163.7151750727
 10
605.8879168273
 20
-166.6430177879
 10
610.9970104873
 20
-169.5927856562
 10
616.1262292675
 20
-172.5541580832
 10
621.2575448535
 20
-175.5167263581
 10
626.3729421015
 20
-178.4700529681
 10
631.4544506492
 20
-181.4037993513
 10
636.484218672
 20
-184.3076468095
 10
641.4445734695
 20
-187.1714044885
 10
646.3181083932
 20
-189.9849865654
 10
651.0876920664
 20
-192.7385392358
 10
655.7365823119
 20
-195.4223848223
 10
660.2484353722
 20
-198.0270879265
 10
664.6074025506
 20
-200.5435112266
 10
668.7981878336
 20
-202.9628000745
 10
672.8060717639
 20
-205.2764571082
 10
676.6169595132
 20
-207.4763700043
 10
680.2174679754
 20
-209.5548009239
 10
683.5949623157
 20
-211.5044562801
 10
686.7375683179
 20
-213.318493858
 10
689.6342658983
 20
-214.99051597
 10
692.2748555196
 20
-216.514671727
 10
694.6500727776
 20
-217.8856015238
 10
696.751569962
 20
-219.0984993892
 10
698.5719766429
 20
-220.1490749568
 10
700.1048891334
 20
-221.0336690486
 10
701.3449231736
 20
-221.7491745841
 10
702.2877323697
 20
-222.2930472166
 10
702.9300029258
 20
-222.6633996278
 10
703.2694641804
 20
-222.8589467671
 10
703.3049360218
 20
-222.8789845543
 10
703.0362972778
 20
-222.7234081237
 10
702.4644751789
 20
-222.3928274078
 10
701.5914980424
 20
-221.888366372
 10
700.4204215148
 20
-221.211815102
 10
698.9553601821
 20
-220.3655142049
 10
697.2014612281
 20
-219.3524856073
 10
695.1648833612
 20
-218.1762500378
 10
692.8527810089
 20
-216.8409395699
 10
690.2732779762
 20
-215.3512702449
 10
687.4354358356
 20
-213.7124751431
 10
684.3492223166
 20
-211.9302739617
 10
681.0254691595
 20
-210.0109581852
 10
677.4758563096
 20
-207.9612663655
 10
673.7128539656
 20
-205.7883932423
 10
669.749680433
 20
-203.4999532429
 10
665.6002547085
 20
-201.1040261025
 10
661.2791543333
 20
-198.6089804378
 10
656.8015521728
 20
-196.0236075862
 10
652.1831795383
 20
-193.3570029698
 10
647.4402576981
 20
-190.6185083049
 10
642.5894504625
 20
-187.8177268055
 10
637.6477851581
 20
-184.9645444764
 10
632.6326262867
 20
-182.0689384798
 10
627.5615964992
 20
-179.1411200995
 10
622.4525028391
 20
-176.1913278963
 10
617.3232893273
 20
-173.2299524279
 10
612.191968473
 20
-170.2674115292
 10
607.0765764933
 20
-167.314057543
 10
601.9950679456
 20
-164.3803111599
 10
596.9652999228
 20
-161.4764637016
 10
592.0049345886
 20
-158.6127121054
 10
587.1314049332
 20
-155.7991391545
 10
582.3618212601
 20
-153.0455743167
 10
577.7129362829
 20
-150.3617378563
 10
573.2010832226
 20
-147.7570225847
 10
568.8421081417
 20
-145.240616014
 10
564.6513228586
 20
-142.8213271661
 10
560.6434468309
 20
-140.5076534029
 10
556.8325590816
 20
-138.3077526743
 10
553.232045351
 20
-136.2293126286
 10
549.8545510108
 20
-134.2796694398
 10
546.7119397402
 20
-132.4656227358
 10
543.8152526965
 20
-130.7935945411
 10
541.1746630752
 20
-129.2694387841
 10
538.7994458173
 20
-127.8985089873
 10
536.6979433644
 20
-126.6856384981
 10
534.8775419519
 20
-125.6350355544
 10
533.3446241931
 20
-124.7504445039
 10
532.1045901529
 20
-124.0349633033
 10
531.1617809568
 20
-123.4910663359
 10
530.519515669
 20
-123.1207108833
 10
530.1800544144
 20
-122.925163744
 10
530.1445773047
 20
-122.905153333
 10
530.4132213171
 20
-123.0607023875
 10
530.9850434159
 20
-123.3912831033
 10
531.858015284
 20
-123.8957471805
 10
533.0290918117
 20
-124.5723227853
 10
534.4941531444
 20
-125.4185993476
 10
536.2480520983
 20
-126.43165228
 10
538.2846352336
 20
-127.6078848081
 10
540.5967323176
 20
-128.9431739826
 10
543.1762353503
 20
-130.4328433076
 10
546.0140774909
 20
-132.0716627443
  0
LWPOLYLINE
  5
DC
330
1F
100
AcDbEntity
  8
0
  6
Continuous
 62
     7
370
    25
100
AcDbPolyline
 90
      100
 70
   128
 43
0.0
 10
554.4286483809
 20
-136.9292911215
 10
551.7602523763
 20
-135.3883224241
 10
549.3534355187
 20
-133.9983744312
 10
547.2179073882
 20
-132.7650483854
 10
545.3622501369
 20
-131.693276407
 10
543.7939500987
 20
-130.7874249119
 10
542.5193134959
 20
-130.051106012
 10
541.543482244
 20
-129.4872839746
 10
540.8703812682
 20
-129.0982508795
 10
540.5027079669
 20
-128.8855292758
 10
540.4419585531
 20
-128.8500394767
 10
540.6883753713
 20
-128.9918805378
 10
541.2409627021
 20
-129.3104853862
 10
542.0974972993
 20
-129.8045903953
 10
543.2545310239
 20
-130.4721943104
 10
544.7073961123
 20
-131.3105917039
 10
546.4502578603
 20
-132.3164398887
 10
548.4760856467
 20
-133.4856448402
 10
550.7767293246
 20
-134.8135452215
 10
553.3429218557
 20
-136.2947922225
 10
556.1643280425
 20
-137.923365523
 10
559.2295919435
 20
-139.6927831742
 10
562.526369142
 20
-141.5958647051
 10
566.0413833805
 20
-143.6249645786
 10
569.760485172
 20
-145.7719086875
 10
573.6686920524
 20
-148.0280480057
 10
577.750267854
 20
-150.3843347725
 10
581.988780821
 20
-152.8312161168
 10
586.367167983
 20
-155.3589145665
 10
590.8677941765
 20
-157.9571761862
 10
595.4725349397
 20
-160.6156104529
 10
600.1628496104
 20
-163.3234526063
 10
604.9198511322
 20
-166.0698168775
 10
609.7243916649
 20
-168.84368508
 10
614.5571179025
 20
-171.6338229525
 10
619.3985764404
 20
-174.4290356722
 10
624.2292638242
 20
-177.2180629089
 10
629.0297345519
 20
-179.9896898497
 10
633.7806537566
 20
-182.7326985256
 10
638.46289994
 20
-185.4361035564
 10
643.0576123874
 20
-188.0889970137
 10
647.5462939006
 20
-190.6806989917
 10
651.9108687501
 20
-193.2007849836
 10
656.1337564316
 20
-195.6390676332
 10
660.1979612284
 20
-197.9857701162
 10
664.0871143583
 20
-200.2314348913
 10
667.7855529987
 20
-202.3670058292
 10
671.2783940437
 20
-204.3839073032
 10
674.5515657143
 20
-206.2739772716
 10
677.5918918519
 20
-208.0296315388
 10
680.3871235287
 20
-209.6438211762
 10
682.9259969994
 20
-211.1100051461
 10
685.1983179951
 20
-212.4223206531
 10
687.1949143078
 20
-213.575434094
 10
688.9077516946
 20
-214.5647418271
 10
690.3299391457
 20
-215.386251547
 10
691.4557394213
 20
-216.0366492067
 10
692.2806217353
 20
-216.5133172775
 10
692.80127756
 20
-216.8143438847
 10
693.015583748
 20
-216.9385136761
 10
692.9227026306
 20
-216.8853169692
 10
692.5230082611
 20
-216.6549679998
 10
691.8180864147
 20
-216.2484170954
 10
690.8108057112
 20
-215.6672700826
 10
689.5051964431
 20
-214.9138886644
 10
687.9065216981
 20
-213.9912976584
 10
686.0212299439
 20
-212.9032306294
 10
683.8568997108
 20
-211.6540371196
 10
681.422263299
 20
-210.2487693514
 10
678.7271014114
 20
-208.6930727226
 10
675.7822879351
 20
-206.9932116775
 10
672.5996621831
 20
-205.1560567777
 10
669.1920486512
 20
-203.1889744485
 10
665.5731733827
 20
-201.0998882
 10
661.7576021471
 20
-198.8972307716
 10
657.760697224
 20
-196.5898583503
 10
653.5985530294
 20
-194.1870620783
 10
649.2879327315
 20
-191.6985192946
 10
644.8461942464
 20
-189.134262979
 10
640.2912131062
 20
-186.5045885527
 10
635.6413449221
 20
-183.8201052174
 10
630.9153107973
 20
-181.0916089587
 10
626.1321229117
 20
-178.3301125893
 10
621.3110687169
 20
-175.5467149591
 10
616.4715357632
 20
-172.7526093145
 10
611.6330301389
 20
-169.9590939554
 10
606.8150315907
 20
-167.1773547426
 10
602.0369276687
 20
-164.4186582552
 10
597.3179610435
 20
-161.6940658639
 10
592.6771452122
 20
-159.0145675703
 10
588.1331617653
 20
-156.3909618535
 10
583.7043077035
 20
-153.8337887524
 10
579.4084164121
 20
-151.3533329071
 10
575.2627786356
 20
-148.9596509308
 10
571.2841003311
 20
-146.6622915661
 10
567.4883920327
 20
-144.4705846526
 10
563.8909425097
 20
-142.3933217335
 10
560.5062292045
 20
-140.4388381842
 10
557.3478918911
 20
-138.6150466668
 10
554.4286483809
 20
-136.9292911215
  0
LWPOLYLINE
  5
DD
330
1F
100
AcDbEntity
  8
0
  6
Continuous
 62
     1
370
    25
100
AcDbPolyline
 90
       15
 70
   128
 43
0.0
 10
594.0973412247
 20
-327.5602102926
 10
598.162100516
 20
-330.0501276288
 10
601.9642065743
 20
-332.6746831878
 10
605.4903034584
 20
-335.4246582358
 10
608.7280151414
 20
-338.2903900008
 10
611.6659573643
 20
-341.2618150118
 10
614.2938160032
 20
-344.3284960913
 10
616.6023622152
 20
-347.4796615122
 10
618.5834800978
 20
-350.7042452964
 10
620.2302206894
 20
-353.9909123055
 10
621.5367940666
 20
-357.3281266715
 10
622.4986088572
 20
-360.7041624418
 10
623.1122906792
 20
-364.1071628852
 10
623.3756821406
 20
-367.5251769885
 10
623.386666663
 20
-368.380616492
  0
LWPOLYLINE
  5
DE
330
1F
100
AcDbEntity
  8
0
  6
Continuous
 62
     1
370
    25
100
AcDbPolyline
 90
       41
 70
   128
 43
0.0
 10
423.3866574418
 20
-368.380616492
 10
423.4854654597
 20
-365.8150400726
 10
423.9241930793
 20
-362.4030387326
 10
424.7122917313
 20
-359.0120318814
 10
425.8469849919
 20
-355.6539325153
 10
427.32428735
 20
-352.3405365383
 10
429.139014743
 20
-349.0834801831
 10
431.2847898261
 20
-345.8942065562
 10
433.7540762157
 20
-342.7839154556
 10
436.5381969296
 20
-339.7635344778
 10
439.6273804843
 20
-336.8436741577
 10
443.0107694564
 20
-334.0345865305
 10
446.676482386
 20
-331.3461415605
 10
450.6116471975
 20
-328.7877835174
 10
454.8024324806
 20
-326.3684946694
 10
459.2341187777
 20
-324.0967723787
 10
463.8911466577
 20
-321.9806013484
 10
468.7571563933
 20
-320.0274124696
 10
473.815050852
 20
-318.2440647631
 10
479.0470710641
 20
-316.6368260861
 10
484.4348370524
 20
-315.2113373957
 10
489.9594196134
 20
-313.9726078074
 10
495.601418026
 20
-312.9249879826
 10
501.3410101005
 20
-312.0721594842
 10
507.1580391067
 20
-311.4171150079
 10
513.0320717254
 20
-310.9621553402
 10
518.9424718061
 20
-310.7088832764
 10
524.8684872941
 20
-310.6581838516
 10
530.7893029147
 20
-310.8102365057
 10
536.6841112956
 20
-311.1645074807
 10
542.5322104316
 20
-311.7197513406
 10
548.3130616366
 20
-312.4740200962
 10
554.0063527639
 20
-313.4246632048
 10
559.5921009388
 20
-314.5683382146
 10
565.0506709984
 20
-315.9010335755
 10
570.362894029
 20
-317.4180640768
 10
575.5101108306
 20
-319.114102021
 10
580.4742417223
 20
-320.9831931908
 10
585.2378543724
 20
-323.0187655936
 10
589.7842105551
 20
-325.2136747011
 10
594.0973412247
 20
-327.5602102926
  0
LWPOLYLINE
  5
DF
330
1F
100
AcDbEntity
  8
0
  6
Continuous
 62
     1
370
    25
100
AcDbPolyline
 90
       18
 70
   128
 43
0.0
 10
594.0973412247
 20
-327.5602102926
 10
598.1984732463
 20
-329.9277147674
 10
602.1095710548
 20
-332.1855062592
 10
605.8168993875
 20
-334.3256192414
 10
609.307439478
 20
-336.3405384288
 10
612.5689219836
 20
-338.2232177843
 10
615.5898948152
 20
-339.9670040868
 10
618.3597540892
 20
-341.5658008062
 10
620.868755981
 20
-343.013983684
 10
623.1081023361
 20
-344.3064562459
 10
625.0699169621
 20
-345.4386908541
 10
626.7473114834
 20
-346.4067119781
 10
628.1343985122
 20
-347.2070977055
 10
629.226302185
 20
-347.8370709923
 10
630.0191845042
 20
-348.2943931939
 10
630.510263778
 20
-348.5774598755
 10
630.6978119855
 20
-348.6852871186
 10
630.6998824495
 20
-348.6864420121
  0
LWPOLYLINE
  5
E0
330
1F
100
AcDbEntity
  8
0
  6
Continuous
 62
     1
370
    25
100
AcDbPolyline
 90
       38
 70
   128
 43
0.0
 10
457.4947986821
 20
-248.6864361783
 10
457.613506598
 20
-248.7553719983
 10
458.0339207533
 20
-248.9985515261
 10
458.7566351553
 20
-249.4162589026
 10
459.7791124318
 20
-250.0070374824
 10
461.0977589055
 20
-250.7687873177
 10
462.7079436915
 20
-251.6988697267
 10
464.6040158192
 20
-252.7939818216
 10
466.7793075256
 20
-254.050300623
 10
469.2261836457
 20
-255.4634058753
 10
471.9360521492
 20
-257.0283348047
 10
474.8993838971
 20
-258.7395889687
 10
478.1057738862
 20
-260.5911536505
 10
481.5439636396
 20
-262.5765214353
 10
485.2018780851
 20
-264.6887378447
 10
489.0666597999
 20
-266.920375481
 10
493.1247454011
 20
-269.2635872629
 10
497.3618708149
 20
-271.710152056
 10
501.7631555694
 20
-274.2514625069
 10
506.313142308
 20
-276.8786056535
 10
510.9958468384
 20
-279.5823522798
 10
515.7948187187
 20
-282.3532010238
 10
520.693204478
 20
-285.1814209642
 10
525.6737976653
 20
-288.0570835589
 10
530.7191073385
 20
-290.9700778554
 10
535.8114107478
 20
-293.9101713261
 10
540.9328139218
 20
-296.867057017
 10
546.0653333271
 20
-299.8303155231
 10
551.1909432834
 20
-302.7895640366
 10
556.2916286471
 20
-305.7344015924
 10
561.3494928128
 20
-308.6544775086
 10
566.3467498103
 20
-311.5395415711
 10
571.2658586482
 20
-314.3794668493
 10
576.0895351672
 20
-317.164250449
 10
580.8008376514
 20
-319.8841541963
 10
585.3832188529
 20
-322.529588665
 10
589.8205832854
 20
-325.0912618397
 10
594.0973412247
 20
-327.5602102926
  0
ENDSEC
  0
SECTION
  2
OBJECTS
  0
DICTIONARY
  5
C
330
0
100
AcDbDictionary
281
     1
  3
ACAD_GROUP
350
D
  3
ACAD_LAYOUT
350
1A
  3
ACAD_MLINESTYLE
350
17
  3
ACAD_PLOTSETTINGS
350
19
  3
ACAD_PLOTSTYLENAME
350
E
  3
ACAD_SCALELIST
350
47
  0
DICTIONARY
  5
D
102
{ACAD_REACTORS
330
C
102
}
330
C
100
AcDbDictionary
281
     1
  0
DICTIONARY
  5
1A
102
{ACAD_REACTORS
330
C
102
}
330
C
100
AcDbDictionary
281
     1
  3
Layout1
350
1E
  3
Layout2
350
26
  3
Model
350
22
  0
DICTIONARY
  5
17
102
{ACAD_REACTORS
330
C
102
}
330
C
100
AcDbDictionary
281
     1
  3
Standard
350
18
  0
DICTIONARY
  5
19
102
{ACAD_REACTORS
330
C
102
}
330
C
100
AcDbDictionary
281
     1
  0
ACDBDICTIONARYWDFLT
  5
E
102
{ACAD_REACTORS
330
C
102
}
330
C
100
AcDbDictionary
281
     1
  3
Normal
350
F
100
AcDbDictionaryWithDefault
340
F
  0
DICTIONARY
  5
47
102
{ACAD_REACTORS
330
C
102
}
330
C
100
AcDbDictionary
281
     1
  3
A0
350
48
  3
A1
350
49
  3
A2
350
4A
  3
A3
350
4B
  3
A4
350
4C
  3
A5
350
4D
  3
A6
350
4E
  3
A7
350
4F
  3
A8
350
50
  3
A9
350
51
  3
B0
350
52
  3
B1
350
53
  3
B2
350
54
  3
B3
350
55
  3
B4
350
56
  3
B5
350
57
  3
B6
350
58
  3
B7
350
59
  3
B8
350
5A
  3
B9
350
5B
  3
C0
350
5C
  3
C1
350
5D
  3
C2
350
5E
  3
C3
350
5F
  3
C4
350
60
  3
C5
350
61
  3
C6
350
62
  3
C7
350
63
  3
C8
350
64
  3
C9
350
65
  3
D0
350
66
  3
D1
350
67
  3
D2
350
68
  0
LAYOUT
  5
1E
102
{ACAD_REACTORS
330
1A
102
}
330
1A
100
AcDbPlotSettings
  1

  2
none_device
  4

  6

 40
0.0
 41
0.0
 42
0.0
 43
0.0
 44
0.0
 45
0.0
 46
0.0
 47
0.0
 48
0.0
 49
0.0
140
0.0
141
0.0
142
1.0
143
1.0
 70
   688
 72
     1
 73
     0
 74
     5
  7

 75
    16
147
1.0
148
0.0
149
0.0
100
AcDbLayout
  1
Layout1
 70
     1
 71
     1
 10
0.0
 20
0.0
 11
420.0
 21
297.0
 12
0.0
 22
0.0
 32
0.0
 14
1.0000000000E+20
 24
1.0000000000E+20
 34
1.0000000000E+20
 15
-1.0000000000E+20
 25
-1.0000000000E+20
 35
-1.0000000000E+20
146
0.0
 13
0.0
 23
0.0
 33
0.0
 16
1.0
 26
0.0
 36
0.0
 17
0.0
 27
1.0
 37
0.0
 76
     0
330
1B
  0
LAYOUT
  5
26
102
{ACAD_REACTORS
330
1A
102
}
330
1A
100
AcDbPlotSettings
  1

  2
none_device
  4

  6

 40
0.0
 41
0.0
 42
0.0
 43
0.0
 44
0.0
 45
0.0
 46
0.0
 47
0.0
 48
0.0
 49
0.0
140
0.0
141
0.0
142
1.0
143
1.0
 70
   688
 72
     1
 73
     0
 74
     5
  7

 75
    16
147
1.0
148
0.0
149
0.0
100
AcDbLayout
  1
Layout2
 70
     1
 71
     2
 10
0.0
 20
0.0
 11
0.0
 21
0.0
 12
0.0
 22
0.0
 32
0.0
 14
0.0
 24
0.0
 34
0.0
 15
0.0
 25
0.0
 35
0.0
146
0.0
 13
0.0
 23
0.0
 33
0.0
 16
1.0
 26
0.0
 36
0.0
 17
0.0
 27
1.0
 37
0.0
 76
     0
330
23
  0
LAYOUT
  5
22
102
{ACAD_REACTORS
330
1A
102
}
330
1A
100
AcDbPlotSettings
  1

  2
none_device
  4
Letter_(8.50_x_11.00_Inches)
  6

 40
6.35
 41
6.35
 42
6.35000508
 43
6.35000508
 44
215.9
 45
279.4
 46
0.0
 47
0.0
 48
0.0
 49
0.0
140
0.0
141
0.0
142
1.0
143
1.0
 70
  1712
 72
     1
 73
     0
 74
     0
  7

 75
     0
147
1.0
148
0.0
149
0.0
100
AcDbLayout
  1
Model
 70
     1
 71
     0
 10
0.0
 20
0.0
 11
279.4
 21
215.9
 12
0.0
 22
0.0
 32
0.0
 14
0.0
 24
0.0
 34
0.0
 15
279.4
 25
215.9
 35
0.0
146
0.0
 13
0.0
 23
0.0
 33
0.0
 16
1.0
 26
0.0
 36
0.0
 17
0.0
 27
1.0
 37
0.0
 76
     0
330
1F
331
29
  0
MLINESTYLE
  5
18
102
{ACAD_REACTORS
330
17
102
}
330
17
100
AcDbMlineStyle
  2
Standard
 70
     0
  3

 62
   256
 51
90.0
 52
90.0
 71
     2
 49
0.5
 62
   256
  6
BYLAYER
 49
-0.5
 62
   256
  6
BYLAYER
  0
ACDBPLACEHOLDER
  5
F
102
{ACAD_REACTORS
330
E
102
}
330
E
  0
SCALE
  5
48
102
{ACAD_REACTORS
330
47
102
}
330
47
100
AcDbScale
 70
     0
300
1:1
140
1.0
141
1.0
290
     1
  0
SCALE
  5
49
102
{ACAD_REACTORS
330
47
102
}
330
47
100
AcDbScale
 70
     0
300
1:2
140
1.0
141
2.0
290
     0
  0
SCALE
  5
4A
102
{ACAD_REACTORS
330
47
102
}
330
47
100
AcDbScale
 70
     0
300
1:4
140
1.0
141
4.0
290
     0
  0
SCALE
  5
4B
102
{ACAD_REACTORS
330
47
102
}
330
47
100
AcDbScale
 70
     0
300
1:5
140
1.0
141
5.0
290
     0
  0
SCALE
  5
4C
102
{ACAD_REACTORS
330
47
102
}
330
47
100
AcDbScale
 70
     0
300
1:8
140
1.0
141
8.0
290
     0
  0
SCALE
  5
4D
102
{ACAD_REACTORS
330
47
102
}
330
47
100
AcDbScale
 70
     0
300
1:10
140
1.0
141
10.0
290
     0
  0
SCALE
  5
4E
102
{ACAD_REACTORS
330
47
102
}
330
47
100
AcDbScale
 70
     0
300
1:16
140
1.0
141
16.0
290
     0
  0
SCALE
  5
4F
102
{ACAD_REACTORS
330
47
102
}
330
47
100
AcDbScale
 70
     0
300
1:20
140
1.0
141
20.0
290
     0
  0
SCALE
  5
50
102
{ACAD_REACTORS
330
47
102
}
330
47
100
AcDbScale
 70
     0
300
1:30
140
1.0
141
30.0
290
     0
  0
SCALE
  5
51
102
{ACAD_REACTORS
330
47
102
}
330
47
100
AcDbScale
 70
     0
300
1:40
140
1.0
141
40.0
290
     0
  0
SCALE
  5
52
102
{ACAD_REACTORS
330
47
102
}
330
47
100
AcDbScale
 70
     0
300
1:50
140
1.0
141
50.0
290
     0
  0
SCALE
  5
53
102
{ACAD_REACTORS
330
47
102
}
330
47
100
AcDbScale
 70
     0
300
1:100
140
1.0
141
100.0
290
     0
  0
SCALE
  5
54
102
{ACAD_REACTORS
330
47
102
}
330
47
100
AcDbScale
 70
     0
300
2:1
140
2.0
141
1.0
290
     0
  0
SCALE
  5
55
102
{ACAD_REACTORS
330
47
102
}
330
47
100
AcDbScale
 70
     0
300
4:1
140
4.0
141
1.0
290
     0
  0
SCALE
  5
56
102
{ACAD_REACTORS
330
47
102
}
330
47
100
AcDbScale
 70
     0
300
8:1
140
8.0
141
1.0
290
     0
  0
SCALE
  5
57
102
{ACAD_REACTORS
330
47
102
}
330
47
100
AcDbScale
 70
     0
300
10:1
140
10.0
141
1.0
290
     0
  0
SCALE
  5
58
102
{ACAD_REACTORS
330
47
102
}
330
47
100
AcDbScale
 70
     0
300
100:1
140
100.0
141
1.0
290
     0
  0
SCALE
  5
59
102
{ACAD_REACTORS
330
47
102
}
330
47
100
AcDbScale
 70
     0
300
1/128" = 1'-0"
140
0.0078125
141
12.0
290
     0
  0
SCALE
  5
5A
102
{ACAD_REACTORS
330
47
102
}
330
47
100
AcDbScale
 70
     0
300
1/64" = 1'-0"
140
0.015625
141
12.0
290
     0
  0
SCALE
  5
5B
102
{ACAD_REACTORS
330
47
102
}
330
47
100
AcDbScale
 70
     0
300
1/32" = 1'-0"
140
0.03125
141
12.0
290
     0
  0
SCALE
  5
5C
102
{ACAD_REACTORS
330
47
102
}
330
47
100
AcDbScale
 70
     0
300
1/16" = 1'-0"
140
0.0625
141
12.0
290
     0
  0
SCALE
  5
5D
102
{ACAD_REACTORS
330
47
102
}
330
47
100
AcDbScale
 70
     0
300
3/32" = 1'-0"
140
0.09375
141
12.0
290
     0
  0
SCALE
  5
5E
102
{ACAD_REACTORS
330
47
102
}
330
47
100
AcDbScale
 70
     0
300
1/8" = 1'-0"
140
0.125
141
12.0
290
     0
  0
SCALE
  5
5F
102
{ACAD_REACTORS
330
47
102
}
330
47
100
AcDbScale
 70
     0
300
3/16" = 1'-0"
140
0.1875
141
12.0
290
     0
  0
SCALE
  5
60
102
{ACAD_REACTORS
330
47
102
}
330
47
100
AcDbScale
 70
     0
300
1/4" = 1'-0"
140
0.25
141
12.0
290
     0
  0
SCALE
  5
61
102
{ACAD_REACTORS
330
47
102
}
330
47
100
AcDbScale
 70
     0
300
3/8" = 1'-0"
140
0.375
141
12.0
290
     0
  0
SCALE
  5
62
102
{ACAD_REACTORS
330
47
102
}
330
47
100
AcDbScale
 70
     0
300
1/2" = 1'-0"
140
0.5
141
12.0
290
     0
  0
SCALE
  5
63
102
{ACAD_REACTORS
330
47
102
}
330
47
100
AcDbScale
 70
     0
300
3/4" = 1'-0"
140
0.75
141
12.0
290
     0
  0
SCALE
  5
64
102
{ACAD_REACTORS
330
47
102
}
330
47
100
AcDbScale
 70
     0
300
1" = 1'-0"
140
1.0
141
12.0
290
     0
  0
SCALE
  5
65
102
{ACAD_REACTORS
330
47
102
}
330
47
100
AcDbScale
 70
     0
300
1-1/2" = 1'-0"
140
1.5
141
12.0
290
     0
  0
SCALE
  5
66
102
{ACAD_REACTORS
330
47
102
}
330
47
100
AcDbScale
 70
     0
300
3" = 1'-0"
140
3.0
141
12.0
290
     0
  0
SCALE
  5
67
102
{ACAD_REACTORS
330
47
102
}
330
47
100
AcDbScale
 70
     0
300
6" = 1'-0"
140
6.0
141
12.0
290
     0
  0
SCALE
  5
68
102
{ACAD_REACTORS
330
47
102
}
330
47
100
AcDbScale
 70
     0
300
1'-0" = 1'-0"
140
12.0
141
12.0
290
     0
  0
ENDSEC
  0
EOF
